» » »

Wilson Pickett - 634-5789 Tabs

Artists:  A B C D E F G H I J K L M N O P Q R S T U V W X Y Z # 

634-5789 Tabs

(ver. 1) Click to play this song!
Wilson Pickett
 Rating:
4.9/5 (20 votes)

 634-5789 lessons Tabs too difficult? Try these video lessons and learn fast
 
                 Intro
  Q=106(8=s8)
  D     Em7 D             Em7   D
 4/4
  Gtr I (El. Gtr.)
                           |3-|
   E  E  Q   E E Q     Q   E  Q  E E Q
|-----------10------|-10--10-10-10------|
|-----------10------|-10--12-12-10------|
|-11-11-12--11------|-11--12----11------|
|-12-12-12--12------|-12--12----12------|
|-12----10--12------|-12--10----12------|
|-10----10--10------|-10--10----10------|


        Em7 D   Em7     D   Em7 D
                 |3-|
   E  E  Q   Q   E  Q    Q   Q   E E Q
|-10----10--10--10-10-|-10------10------||
|-10-10-12--10--12-12-|-10------10------||
|-11----12--11--12----|-11--12--11------||
|-12----12--12--12----|-12--12--12------||
|-12----10--12--10----|-12--10--12------||
|-10----10--10--10----|-10--10--10------||


   1st - 3rd Verses
    $
    D             G                     D
    PM----------------------------------------------------|
    e E e E e E e E   +E  E e E a E E e E   e E e E e E e E
||------------------|---------------------|-----------------|
||o-----------------|---------------------|-----------------|
||------------------|-----------3h4-------|---------7-------|
||--7-7-9-9-7-7-9---|-------------3-----7-|-7-7-9---7-7-7-7-|
||o-5-5-5-5-5-5-5-5-|-(5)-5-7-7---5-5-5-5-|-5-5-5-5-5-5-5-5-|
||----------------3-|-(3)-3-3-3-----3-3---|-----------------|


                                      G
  PM------------------------------|   PM    PM------|   PM
           |-3--|
  e E e E +E  E E e E   e E e E E E E E   E E E E E E E E
|---------------------|-----------------|-----------------|
|-7---8-7-(7)---------|---------7-------|-----------------|
|-7---7-7-(7)---------|---------7-------|---------4-------|
|-7-----7-(7)---7-7-7-|-7-7-9-7-7-7-----|---------5-----7-|
|-5-5---5-(5)---5-5-5-|-5-5-5-5---5---5-|---5-7-5-5-5---5-|
|---------------------|---------------3-|---3-3-3-3-3-----|


                                      Pre-Chorus
                                  A    A             G
  PM----------------------|   PM---------------------|
  e E e E e E e E   e E e E E E E E    e E e E e E e E
|-----------------|-----------------||-----------------|
|---------7-------|-7---------------||-----------------|
|---------7-------|-7---------------||-----------------|
|-7-7-9-7-7-7-9-7-|-7-7-9-7---7-----||-----------------|
|-5-5-5-5-5-5-5-5-|-5-5-5-5---5---7-||-7-7-7-7-7-7-7-5-|
|-----------------|---------------5-||-5-5-5-5-5-5-5-3-|


                A                   G                       D
  PM----------------------------|   PM------------------|   PM
                                                        |-3-|
  e E e E e E e E   +E  E e E E E E E   +E  E E E +E  E e E E
|-----------------|-------------------|-----------------------||
|-----------------|-------------------|-----------------------||
|-----------------|-----------6-------|-----------------------||
|-----------------|-----------7-------|---------------------7-||
|-5-5-5-5-5-5-5-7-|-(7)-7-7-7-7-7---5-|-(5)-5-5-5-(5)-5-5---5-||
|-3-3-3-3-3-3-3-5-|-(5)-5-5-5-5-5---3-|-(3)-3-3-3-(3)-3-3-----||


 Chorus
                                                       To Coda
  D
  PM--------------------------------------------------------|
                                      |-3-| |-3-| |-3-| |-3-|
  e E e E E E E E   E E E E E E E E   E E E E E E E E E E E E
|-----------------|-----------------|--------------------------|
|-----------------|-----------------|--------------------------|
|-----------------|-----------------|--------------------------|
|-7-7-7-7-x-7-x-7-|-x-7-x-7-x-7-x-7-|-----7-----7-----7-----7--|
|-5-5-5-5-x-5-x-5-|-x-5-x-5-x-5-x-5-|-5---5-5---5-5---5-5---5--|
|-----------------|-----------------|--------------------------|


                                        Bridge
  1.                 2.
                                         Bm                           A
  PM--------------------------------|                                 PM
  E E E E E E E E     E E E E E E E E    Q.   E +H       Q.   E +Q.   E
|------------------||-----------------||------7-(7)----|-7----7-(7)------|
|-----------------o||-----------------||-7----7-(7)----|-7----7-(7)------|
|-------------7----||-----------------||-7----7-(7)----|-7----7-(7)------|
|-x-7-x-7-x-9---9--||-x-7-x-7-x-7-9-x-||-9-------------|-9----9-(9)---7--|
|-x-5-x-5-x-------o||-x-5-x-5-x-5-5-x-||---------------|--------------7--|
|------------------||-----------------||---------------|--------------5--|


                                  G
  PM------------------------------------------------|
  e E e E e E e E   e E e E e E e E   e E e E e E e E
|-----------------|-----------------|-----------------|
|-----------------|-----------------|-----------------|
|-----------------|---------------4-|-----------------|
|-7-7-7-7-7-7-7-7-|-7-7-7-7-7-7-7-5-|-----------------|
|-7-7-7-7-7-7-7-7-|-7-7-7-7-7-7-7-5-|-5-5-7-7-5-5-7-7-|
|-5-5-5-5-5-5-5-5-|-5-5-5-5-5-5-5-3-|-3-3-3-3-3-3-3-3-|


                A
  PM------------------------------|
                                      |-3-| |-3-| |-3-| |-3-|
  e E e E e E e E   e E e E e E e E   E E E E E E E E E E E E
|-----------------|-----------------|-------------------------||
|-----------------|-----------------|-------------------------||
|-----------------|-----------------|-6-6-6-6-6-6-6-6-6-6-6-6-||
|-----------------|-----------------|-7-7-7-7-7-7-7-7-7-7-7-7-||
|-5-5-7-7-5-5-7-7-|-7-7-7-7-7-7-7-7-|-7-7-7-7-7-7-7-7-7-7-7-7-||
|-3-3-3-3-3-3-3-5-|-5-5-5-5-5-5-5-5-|-5-5-5-5-5-5-5-5-5-5-5-5-||


 Interlude
                                              D.S. al Coda
  H    E E Q    H    +E  E Q    H    +E  E Q    H.      Q
|-------------|---------------|---------------|-------------||
|-------------|---------------|---------------|-------------||
|----------7--|-7----(7)---7--|-7----(7)---7--|-7-----------||
|--------9----|----------9----|----------9----|-------------||
|-------------|---------------|---------------|-------------||
|-------------|---------------|---------------|-------------||


                     Out-Chorus
  &
                Eb    Eb
  PM------|     PM------------------------------------|
  E E E E E E E E     e E e E e E e E   e E e E e E e E  6x
|-----------------||------------------|------------------||
|-----------------||o-----------------|-----------------o||
|-----------------||------------------|------------------||
|-x-7-x-7-7-----8-||--8-8-8-8-8-8-8-8-|-8-8-8-8-8-8-8-8--||
|-x-5-x-5-5-----6-||o-6-6-6-6-6-6-6-6-|-6-6-6-6-6-6-6-6-o||
|-----------------||------------------|------------------||            
Submit corrections


        634-5789 lessons Hard to play? Try these video lessons and learn fast 634-5789 lessons
        
↑ Back to top | Tablatures and chords for acoustic guitar and electric guitar, ukulele, drums are parodies/interpretations of the original songs. You may use it for private study, scholarship, research or language learning purposes only