Home » W » Will Young »

Will Young - Leave Right Now Acoustic Tabs

Artists:  A B C D E F G H I J K L M N O P Q R S T U V W X Y Z # 

Leave Right Now Acoustic Tabs

(ver. 1) Click to play this song!
Will Young
[Verse] x2
e|---------------------------|-------------------------|
B|-----------0---------------|0h1-----0----------------|
G|---------------------------|-------------------------|
D|-------0---0---------------|2-------0----------------|
A|---------------------------|-------------------------|
E|--3------------------------|-------------------------|
                                                      
e|---------------------------|-------------------------|-----------------------|
B|-----------0-1-----1-------|--0-------0h1p-----------|---------3-------------|
G|---------0-------------2---|--------------0----------|-2---------------------|
D|-----0h2-------------------|------0---0-----------0--|-----0-----------------|
A|----------------0--------0-|-------------------------|-----------------------|
E|--3------------------------|--3---------------2------|-----------------------|

[Bridge]
e|--------0------------------|--------2----------------|-----------0-----------|
B|-----------1---------------|-----------3-----3----3--|--------------1--------|
G|------0------0-------------|------4------4-----------|4--------0------0------|
D|----2----------------------|----4--------------------|--4----2---------------|
A|--3------------------------|--2----------------------|-----3-----------------|
E|---------------------------|-------------------------|-----------------------|

e|------------------0--------|---2-------|
B|---------------1-----------|------3----|
G|-------------2-------------|-2------2--|
D|-----------2--------------0|-----------|
A|---------0--------------0--|-----------|
E|---------------------------|-----------|
 
[Chorus] x3
e|--------0-------------------|-------------------------------|
B|-----------1-------------3--|---------3---------------0-----|
G|------0------0-----------2--|-------2----2---2-0------0-----|                          
D|----2------------------0----|-----4--------4----------------|
A|--3-------------------------|---2---------------------------|
E|----------------------------|-------------------------------|

e|----------0---------------2-|------3--------------------------|
B|--------------------------3-|------0-------------------1------|
G|----------0-----------2-----|------0--------------------------|
D|------2-----------0---------|------0--------------------------|
A|--3-------------------------|------2--------------------------|
E|----------------------------|------3--------------------------|

[Verse] x2
e|---------------------------|-------------------------|
B|-----------0---------------|0h1-----0----------------|
G|---------------------------|-------------------------|
D|-------0---0---------------|2-------0----------------|
A|---------------------------|-------------------------|
E|--3------------------------|-------------------------|
                                                                                
e|---------------------------|-------------------------|-----------------------|
B|-----------0-1-----1-------|--0-------0h1p-----------|---------3-------------|
G|---------0-------------2---|--------------0----------|-2---------------------|
D|-----0h2-------------------|------0---0-----------0--|-----0-----------------|
A|----------------0--------0-|-------------------------|-----------------------|
E|--3------------------------|--3---------------2------|-----------------------|

[Bridge]
e|--------0------------------|--------2----------------|-----------0-----------|
B|-----------1---------------|-----------3-----3----3--|--------------1--------|
G|------0------0-------------|------4------4-----------|4--------0------0------|
D|----2----------------------|----4--------------------|--4----2---------------|
A|--3------------------------|--2----------------------|-----3-----------------|
E|---------------------------|-------------------------|-----------------------|

e|------------------0--------|---2-------|
B|---------------1-----------|------3----|
G|-------------2-------------|-2------2--|
D|-----------2--------------0|-----------|
A|---------0--------------0--|-----------|
E|---------------------------|-----------|

[Chorus] x3
e|--------0-------------------|-------------------------------|
B|-----------1-------------3--|---------3---------------0-----|
G|------0------0-----------2--|-------2----2---2-0------0-----|                      
D|----2------------------0----|-----4--------4----------------|
A|--3-------------------------|---2---------------------------|
E|----------------------------|-------------------------------|

e|----------0---------------2-------|
B|--------------------------3-------|
G|----------0-----------2-----------|
D|------2-----------0---------------|
A|--3-------------------------------|
E|----------------------------------|

[Bridge]
e|--------0-----------0---------------------------|
B|--------0-----------0-----------3-----------3---|
G|-----0-----0-----0-----0--------4-----------4---|
D|--2-----------2--------------4-----4-----4-----4|
A|--------------------------2-----------2---------|
E|------------------------------------------------|

e|--------0-----------0-----------2-----------2---|
B|--------1-----------1-----------3-----------0---|
G|-----2-----2-----2-----2-----4-----4-----2-----2|
D|--------------------------0-----------1---------|
A|--0-----------0---------------------------------|
E|------------------------------------------------|

e|--------0-----------0---------------------------|
B|--------0-----------0-----------3-----------3---|
G|-----0-----0-----0-----0--------4-----------4---|
D|--2-----------2--------------4-----4-----4-----4|
A|--------------------------2-----------2---------|
E|------------------------------------------------|

E|--------0-----------0-----------2-----------2---|
B|--------1-----------1-----------3-----------0---|
G|-----2-----2-----2-----2-----2-----2-----2-----2|
D|--------------------------0-----------1---------|
A|--0-----------0---------------------------------|
E|------------------------------------------------|

[Chorus] x2
e|--------0-------------------|-------------------------------|
B|-----------1-------------3--|---------3---------------0-----|
G|------0------0-----------2--|-------2----2---2-0------0-----|                              
D|----2------------------0----|-----4--------4----------------|
A|--3-------------------------|---2---------------------------|
E|----------------------------|-------------------------------|

e|----------0---------------2-|------3--------------------------|
B|--------------------------3-|------0-------------------1------|
G|----------0-----------2-----|------0--------------------------|
D|------2-----------0---------|------0--------------------------|
A|--3-------------------------|------2--------------------------|
E|----------------------------|------3--------------------------|

            
Submit corrections

↑ Back to top | Tablatures and chords for acoustic guitar and electric guitar, ukulele, drums are parodies/interpretations of the original songs. You may use it for private study, scholarship, research or language learning purposes only