Home » W » Willie Nelson »

Willie Nelson - Time Of The Preacher Tabs

Artists:  A B C D E F G H I J K L M N O P Q R S T U V W X Y Z # 

Time Of The Preacher Tabs

(ver. 1) Click to play this song!
Willie Nelson
 Rating:
4.3/5 (15 votes)
                [Outro] (solo)

e|-7-9-10-9-7-7\5-5~--------------------------------------|
B|-------------------5-5----------------------------------|
G|-----------------------6---------------2----------------|
D|-------------------------7-----------2------------------|
A|---------------------------7-4-0-0-4--------------------|
E|--------------------------------------------------------|

e|-----7-----0-4b5b4-(4)4b5b4-4-2-0-----------------------|
B|-7/9---0-2----------------------------------------------|
G|-7/9----------------------------------------------------|
D|--------------------------------------------------------|
A|--------------------------------------------------------|
E|--------------------------------------------------------|

e|----77----55----44----22----97----97----97--------------|
B|-------------------------8/9---8/9---8/9----------------|
G|-6/7---4/5---3/4---1/2---------------------9------------|
D|--------------------------------------------------------|
A|--------------------------------------------------------|
E|--------------------------------------------------------|

e|----------------5---5-5-5h6p5-5-3/4-4-2-0---------------|
B|---8---7---8---5-5-5----------------------2\1-0---------|
G|--9---8---7---6---6-------------------------------------|
D|-7---6---5---7------------------------------------------|
A|--------------------------------------------------------|
E|--------------------------------------------------------|

e|-4-4b5-4-2-0----7----5---4p2p0---2---0-------0------0---|
B|-------------3/4--1/2--0-------0----0-------2------0----|
G|------------------------------------1-------2-----1-----|
D|------------------------------------2-------2-----2-----|
A|------------------------------------2------0------2-----|
E|-----------------------------------0-------------0------|

UNTIL THE END OF THE WORLD PRETTY FACE ~Custer            
Submit corrections

↑ Back to top | Tablatures and chords for acoustic guitar and electric guitar, ukulele, drums are parodies/interpretations of the original songs. You may use it for private study, scholarship, research or language learning purposes only