Home » W » Willie Nelson »

Willie Nelson - Still Is Still Moving To Me Tabs

Artists:  A B C D E F G H I J K L M N O P Q R S T U V W X Y Z # 

Still Is Still Moving To Me Tabs

(ver. 1) Click to play this song!
Willie Nelson
[Verse]
  Em           Am          Em           Am          Em           D          Em       D          Em   Em
e|7--7--7--7--|5-5--5---5-|7-----------|5-5--5---5-|7-----------|----------|7-----7-|----------|7----7----|
B|8--8--8--8--|5-5--5---5-|8--8--------|5-5--5---5-|8--8--------|7-7-7---7-|8-----8-|7-7-7---7-|8----8----|
G|9--9--9--9--|5-5--5---5-|------9-----|5-5--5---5-|------9-----|7-7-7---7-|9---9---|7-7-7---7-|9----9----|x4
D|9--9--9--9--|7-7----7---|------9-----|7-7----7---|------9-----|7-7-7---7-|9-9-----|7-7-7---7-|9----9----|
A|7--7--7--7--|----5------|------------|----5------|------------|------5---|--------|----------|----------|
E|------------|-----------|------------|-----------|------------|----------|--------|----------|----------|
 
*********************************************************************************************************
 
 
[Intro]
 Em             Em           Am           Em           Am          Em           D          Em
e|------7-------|7--7--7--7--|5-5--5---5-|7-----------|5-5--5---5-|7-----------|----------|7-----7-|
B|8-8---8-------|8--8--8--8--|5-5--5---5-|8--8--------|5-5--5---5-|8--8--------|7-7-7---7-|8-----8-|
G|9-9---9-------|9--9--9--9--|5-5--5---5-|------9-----|5-5--5---5-|------9-----|7-7-7---7-|9---9---|
D|9-9-----9-9-9-|9--9--9--9--|7-7----7---|------9-----|7-7----7---|------9-----|7-7-7---7-|9-9-----|
A|----7---7-7-7-|7--7--7--7--|----5------|------------|----5------|------------|------5---|--------|
E|--------------|------------|-----------|------------|-----------|------------|----------|--------|
 
  D          Em            Em           Em           Am             Em        Am           Em
e|----------|7--7--7--7---|------------|------------|5-5--5---5-|7-----------|5-5--5---5-|7-----------|
B|7-7-7---7-|8--8--8---8--|8-8---8---8-|8-8---8---8-|5-5--5---5-|8--8--------|5-5--5---5-|8--8--------|
G|7-7-7---7-|8--8--8----8-|9-9---9---9-|9-9---9---9-|5-5--5---5-|------9-----|5-5--5---5-|------9-----|
D|7-7-7---7-|7--7--7------|9-9---9---9-|9-9---9---9-|7-7----7---|------9-----|7-7----7---|------9-----|
A|------5---|5--5--5------|----7---7---|----7---7---|----5------|------------|----5------|------------|
E|----------|-------------|------------|------------|-----------|------------|-----------|------------|
 
  D          Em       D          Em    A  A  A                                             G5 G5 G5 G5 / A5
e|----------|7-----7-|----------|7--7--5--5----------------------------------------------------------------|
B|7-7-7---7-|8---8---|7-7-7---7-|8--8--5--5-------------5br----------------pb7-----------------------------|
G|7-7-7---7-|9-9-----|7-7-7---7-|9--9--6--6--------------------------5-7-7b---pb7br-5----------------------|
D|7-7-7---7-|9-------|7-7-7---7-|9--9--7--7--7-7-7-7p5-----7-7p5---7------------------7-5-7----------------|
A|------5---|--------|------5---|7--7-----------------h7--------h7--------------------------5--5--5--5-/-7-|
E|----------|--------|----------|-----------------------------------------------------------3--3--3--3-/-9-|
 
  Am               Am              A / B                       Em             Em           Am
e|----------------|----------------|--------------------------|------7-------|7--7--7--7--|5-5--5---5-|
B|----------------|----------------|5/7-7-7--7-7-7-7--7-7-7-7-|8-8---8-------|8--8--8--8--|5-5--5---5-|
G|----5-7-7br-5---|----5-7-7br-5---|6/8-8-8--8-8-8-8--8-8-8-8-|9-9---9-------|9--9--9--9--|5-5--5---5-|
D|7-7-----------7-|7-7-----------7-|7/9-9-9--9-9-9-9--9-9-9-9-|9-9-----9-9-9-|9--9--9--9--|7-7----7---|
A|----------------|----------------|7/9-9-9--9-9-9-9--9-9-9-9-|----7---7-7-7-|7--7--7--7--|----5------|
E|----------------|----------------|--------------------------|--------------|------------|-----------|
 
 
  Em           Am          Em           D          Em       D          Em
e|7-----------|5-5--5---5-|7-----------|----------|7-----7-|----------|7-7h8p7-5-----|
B|8--8--------|5-5--5---5-|8--8--------|7-7-7---7-|8-----8-|7-7-7---7-|8---------7/8-|
G|------9-----|5-5--5---5-|------9-----|7-7-7---7-|9---9---|7-7-7---7-|9-------------|
D|------9-----|7-7----7---|------9-----|7-7-7---7-|9-9-----|7-7-7---7-|9-------------|
A|------------|----5------|------------|------5---|--------|----------|--------------|
E|------------|-----------|------------|----------|--------|----------|--------------|
 
 
[Verse 1]
Em                              Am                      Em
Still is still moving to me,  I swim like a fish in the sea all the time
       Am                         Em
But if that's what it takes to be free I don't mind
D                        Em       D                        Em
Still is still moving to me,      Still is still moving to me
 
 
[Verse 2]
         Em                              Am                      Em
And it's hard to explain how I feel,  It won't go in words but I know that it's real
Am                 Em
I can be moving or I can be still, but
D                        Em       D                        Em
Still is still moving to me,      Still is still moving to me
 
 
[Bridge]
  A              Asus4 A    G G G G  A              Asus4 A      A    B      B B B B
e|-------------------------|--------|---------------------------------------|--------|
B|2--2--2--2----2--3--2----|0-0-0-0-|2--2--2--2----2--3--2-------2----4-----|4-4-4-4-|
G|2--2--2--2----2--2--2--2-|0-0-0-0-|2--2--2--2----2--2--2--2----2----4-----|4-4-4-4-|
D|2--2--2--2----2--2--2--2-|0-0-0-0-|2--2--2--2----2--2--2--2----2----4-----|4-4-4-4-|
A|0--0--0--0----0--------0-|--------|0--0--0--0----0--------0----0----2-----|2-2-2-2-|
E|-------------------------|--------|---------------------------------------|--------|
  La la la la , la la la la..        La la la la , la la la la,  la...la...
 
 
[Verse 3]
         Em                              Am                      Em
And it's hard to explain how I feel,  It won't go in words but I know that it's real
Am                 Em
I can be moving or I can be still, but
D                        Em       D                        Em
Still is still moving to me,      Still is still moving to me
 
 
[Instrumental]
 Em             Em           Am           Em           Am          Em           D          Em
e|------7-------|7--7--7--7--|5-5--5---5-|7-----------|5-5--5---5-|7-----------|----------|7-----7-|
B|8-8---8-------|8--8--8--8--|5-5--5---5-|8--8--------|5-5--5---5-|8--8--------|7-7-7---7-|8-----8-|
G|9-9---9-------|9--9--9--9--|5-5--5---5-|------9-----|5-5--5---5-|------9-----|7-7-7---7-|9---9---|
D|9-9-----9-9-9-|9--9--9--9--|7-7----7---|------9-----|7-7----7---|------9-----|7-7-7---7-|9-9-----|
A|----7---7-7-7-|7--7--7--7--|----5------|------------|----5------|------------|------5---|--------|
E|--------------|------------|-----------|------------|-----------|------------|----------|--------|
 
  D          Em            Em           Em           Am             Em        Am           Em
e|----------|7--7--7--7---|------------|------------|5-5--5---5-|7-----------|5-5--5---5-|7-----------|
B|7-7-7---7-|8--8--8---8--|8-8---8---8-|8-8---8---8-|5-5--5---5-|8--8--------|5-5--5---5-|8--8--------|
G|7-7-7---7-|8--8--8----8-|9-9---9---9-|9-9---9---9-|5-5--5---5-|------9-----|5-5--5---5-|------9-----|
D|7-7-7---7-|7--7--7------|9-9---9---9-|9-9---9---9-|7-7----7---|------9-----|7-7----7---|------9-----|
A|------5---|5--5--5------|----7---7---|----7---7---|----5------|------------|----5------|------------|
E|----------|-------------|------------|------------|-----------|------------|-----------|------------|
 
  D          Em       D          Em    A  A
e|----------|7-----7-|----------|7--7--5--5-|
B|7-7-7---7-|8---8---|7-7-7---7-|8--8--5--5-|
G|7-7-7---7-|9-9-----|7-7-7---7-|9--9--6--6-|
D|7-7-7---7-|9-------|7-7-7---7-|9--9--7--7-|
A|------5---|--------|------5---|7--7-------|
E|----------|--------|----------|-----------|
 
 
[Bridge]
  A              Asus4 A    G G G G  A              Asus4 A      A    B      B B B B
e|-------------------------|--------|---------------------------------------|--------|
B|2--2--2--2----2--3--2----|0-0-0-0-|2--2--2--2----2--3--2-------2----4-----|4-4-4-4-|
G|2--2--2--2----2--2--2--2-|0-0-0-0-|2--2--2--2----2--2--2--2----2----4-----|4-4-4-4-|
D|2--2--2--2----2--2--2--2-|0-0-0-0-|2--2--2--2----2--2--2--2----2----4-----|4-4-4-4-|
A|0--0--0--0----0--------0-|--------|0--0--0--0----0--------0----0----2-----|2-2-2-2-|
E|-------------------------|--------|---------------------------------------|--------|
  La la la la , la la la la..        La la la la , la la la la,  la...la...
 
 
[Outro]
         Em                              Am                      Em
And it's hard to explain how I feel,  It won't go in words but I know that it's real
Am                 Em
I can be moving or I can be still, but
D                        Em       D                        Em
Still is still moving to me,      Still is still moving to me
D                        Em       D                        Em
Still is still moving to me,      Still is still moving to me
D                        Em       D                        Em
Still is still moving to me,      Still is still moving to me
D                        Em       D                        Em
D                        Em       D                        Em
            
Submit corrections

↑ Back to top | Tablatures and chords for acoustic guitar and electric guitar, ukulele, drums are parodies/interpretations of the original songs. You may use it for private study, scholarship, research or language learning purposes only