Home » W » William Elliott Whitmore »

William Elliott Whitmore - Chariot Tabs

Artists:  A B C D E F G H I J K L M N O P Q R S T U V W X Y Z # 

Chariot Tabs

(ver. 1) Click to play this song!
William Elliott Whitmore
----------------------------------------------------------------------------
----------------------------------------------------------------------------

Tuning: standard

intro:

e|---------------------------|
B|---------------------------|
G|------------0---2--0-------|  
D|---2~-2----(0)--0-(0)--2---|3x
A|---0~-0----------------0---|
E|---------3-----------------|

 The old days are gone
e|----------------------------------------------------------------------|
B|----------------------------------------------------------------------|
G|----------------------0--2--0-----------------------------------------|
D|-----------------2---(0)-0-(0)--2-------------------------------------|
A|-----------------0--------------0-------------------------------------|
E|--------------------3-------------------------------------------------|

 And time goes so fast
e|----------------------------------------------------------------------|
B|----------------------------------------------------------------------|
G|----------------------0--2--0-----------------------------------------|
D|-----------------2---(0)-0-(0)--2-------------------------------------|
A|-----------------0--------------0-------------------------------------|
E|--------------------3-------------------------------------------------|

 Like the cars on a train, watch em go past.

e|-----------------------------------------------------------------|
B|------------------3---3------------------------------------------|
G|------------------0---2-------------------0--2--0----------------|
D|-2----------------0---0---------------2---0--0--0--2-------------|
A|-0----------------x---0---------------0------------0-------------|
E|------------------3----------------------3-----------------------|
 
Chorus:
 
     E    D       A                E             D        A
The Chariot swung low and sweet but it could not carry me home.  

    E      D                A                     G     D
The circle was broke before I could speak and now allllll 
            
             (back into the intro)
my faith is gone.


Lyrics:
The old days are gone and time goes so fast.
Like the cars on a train, watch 'em go past.
The feelings still here and it won't let me be.
I didn't waste no time, time wasted me.

The chariot swung low and sweet but it could not carry me home.
The circle was broke before I could speak and now all my faith is gone.

There's rest for the righteous but us wicked can't sleep.
Give something to hold on to.
Give something to keep.

The chariot swung low and sweet but it could not carry me home.
The circle was broke before I could speak and now allll...

The chariot swung low and sweet but it could not carry me home.
The circle was broke before I could speak and now all my faith is gone.
            
Submit corrections

↑ Back to top | Tablatures and chords for acoustic guitar and electric guitar, ukulele, drums are parodies/interpretations of the original songs. You may use it for private study, scholarship, research or language learning purposes only