Home » W » Will Hoge »

Will Hoge - Overthrow Chords

Artists:  A B C D E F G H I J K L M N O P Q R S T U V W X Y Z # 

Overthrow Chords

(ver. 1) Click to play this song!
Will Hoge
 Rating:
4.4/5 (5 votes)
                INTRO:
B5  B5  B5  B5
 
VERSE:
B5
  First rat off a dead ship
D5       C#5            C#5 B5
  See it sinking like a sto-one
 
B5
TV preacher with a fat lip
D5             C#5        C#5  B5
  Crying in the pulpit all alo-one
 
B5
I can see through you
D5        C#5           C#5 B5
  Like a cheap sheet of gla-ass
 
 B5
Sell a promise to a poor man
D5         C#5     C#5 B5
  Steal it back so fa-ast
 
 
CHORUS:
    C5             G5
The emptiness it shows
 
But you don't believe it
 
C5                 G5
I don't think you know
                         B5
But here comes the overthrow
 
   B5 B5          B5 B5          B5 B5                              B5 B5
E -x--x---------|-x--x---------|-x--x---------|---------|---------|-x--x-|
B -x--x---------|-x--x---------|-x--x---------|---------|---------|-x--x-|
G -x--x---------|-x--x---------|-x--x---------|---------|---------|-x--x-|
D -9--9-----7h9-|-9--9-----7h9-|-9--9-----7h9-|-----7h9-|-----7h9-|-9--9-|
A -9--9-7h9-----|-9--9-7h9-----|-9--9-7h9-----|-7h9-----|-7h9-----|-9--9-|
E -7--7---------|-7--7---------|-7--7---------|---------|---------|-7--7-|
 
 
VERSE:
 B5
Slow dancing with a straw man
D5       C#5           C#5 B5
  With a match and gasoli-ine
 
 B5
Darth Vader with a spray tan
D5       C#5      C#5 B5
  And a girly magazi-ine
 
 B5
Dance little monkeys
D5          C#5             C#5 B5
  I see you feasting on the cru-umbs
 
 B5
It's almost over
D5         C#5            C#5 B5
  Hear 'em banging on the dru-ums
 
 
CHORUS:
    C5             G5
The emptiness it shows
 
But you don't believe it
 
C5                 G5
I don't think you know
                         B5
But here comes the overthrow
 
   B5 B5          B5 B5          B5 B5
E -x--x---------|-x--x---------|-x--x---------|---------|---------|
B -x--x---------|-x--x---------|-x--x---------|---------|---------|
G -x--x---------|-x--x---------|-x--x---------|---------|---------|
D -9--9-----7h9-|-9--9-----7h9-|-9--9-----7h9-|-----7h9-|-----7h9-|
A -9--9-7h9-----|-9--9-7h9-----|-9--9-7h9-----|-7h9-----|-7h9-----|
E -7--7---------|-7--7---------|-7--7---------|---------|---------|
 
B5 B5 B5 B5 B5 B5 B5 B5
 
   B5 B5          B5 B5
E -x--x---------|-x--x---------|
B -x--x---------|-x--x---------|
G -x--x---------|-x--x---------|
D -9--9-----7h9-|-9--9-----7h9-|
A -9--9-7h9-----|-9--9-7h9-----|
E -7--7---------|-7--7---------|
 
B5 B5 B5 B5 B5 B5 B5 B5
 
   B5 B5          B5 B5
E -x--x---------|-x--x---------|
B -x--x---------|-x--x---------|
G -x--x---------|-x--x---------|
D -9--9-----7h9-|-9--9-----7h9-|
A -9--9-7h9-----|-9--9-7h9-----|
E -7--7---------|-7--7---------|
 
           ***********
 
   D5               C#5          B5
E -13b-13b-13br-11--13b-13b-13br----|
B -------------------------------12-|
G ----------------------------------|
D ----------------------------------|
A ----------------------------------|
E ----------------------------------|
 
   B5 B5          B5 B5
E -x--x---------|-x--x---------|
B -x--x---------|-x--x---------|
G -x--x---------|-x--x---------|
D -9--9-----7h9-|-9--9-----7h9-|
A -9--9-7h9-----|-9--9-7h9-----|
E -7--7---------|-7--7---------|
 
           ***********
 
   D5               C#5          C5
E -13b-13b-13br-11--13b-13b-13br----|
B -------------------------------12-|
G ----------------------------------|
D ----------------------------------|
A ----------------------------------|
E ----------------------------------|
 
 
CHORUS:
    C5             G5
The emptiness it shows
 
But you don't believe it
 
C5                 G5
I don't think you know
 
It's hard to conceive it
 
    C5             G5
The emptiness it shows
 
But you don't believe it
 
C5                 G5
I don't think you know
                         B5
But here comes the overthrow
 
   B5 B5          B5 B5          B5 B5
E -x--x---------|-x--x---------|-x--x---------|---------|---------|
B -x--x---------|-x--x---------|-x--x---------|---------|---------|
G -x--x---------|-x--x---------|-x--x---------|---------|---------|
D -9--9-----7h9-|-9--9-----7h9-|-9--9-----7h9-|-----7h9-|-----7h9-|
A -9--9-7h9-----|-9--9-7h9-----|-9--9-7h9-----|-7h9-----|-7h9-----|
E -7--7---------|-7--7---------|-7--7---------|---------|---------|
                                                Here comes the overthrow
 
   B5 B5          B5 B5          B5 B5
E -x--x---------|-x--x---------|-x--x---------|---------|---------|
B -x--x---------|-x--x---------|-x--x---------|---------|---------|
G -x--x---------|-x--x---------|-x--x---------|---------|---------|
D -9--9-----7h9-|-9--9-----7h9-|-9--9-----7h9-|-----7h9-|-----7h9-|
A -9--9-7h9-----|-9--9-7h9-----|-9--9-7h9-----|-7h9-----|-7h9-----|
E -7--7---------|-7--7---------|-7--7---------|---------|---------|
 
   B5 B5          B5 B5          B5 B5
E -x--x---------|-x--x---------|-x--x---------|---------|---------|
B -x--x---------|-x--x---------|-x--x---------|---------|---------|
G -x--x---------|-x--x---------|-x--x---------|---------|---------|
D -9--9-----7h9-|-9--9-----7h9-|-9--9-----7h9-|-----7h9-|-----7h9-|
A -9--9-7h9-----|-9--9-7h9-----|-9--9-7h9-----|-7h9-----|-7h9-----|
E -7--7---------|-7--7---------|-7--7---------|---------|---------|
 
   B5 B5          B5 B5          B5 B5
E -x--x---------|-x--x---------|-x--x---------|---------|---------|
B -x--x---------|-x--x---------|-x--x---------|---------|---------|
G -x--x---------|-x--x---------|-x--x---------|---------|---------|
D -9--9-----7h9-|-9--9-----7h9-|-9--9-----7h9-|-----7h9-|-----7h9-|
A -9--9-7h9-----|-9--9-7h9-----|-9--9-7h9-----|-7h9-----|-7h9-----|
E -7--7---------|-7--7---------|-7--7---------|---------|---------|
            
Submit corrections

↑ Back to top | Tablatures and chords for acoustic guitar and electric guitar, ukulele, drums are parodies/interpretations of the original songs. You may use it for private study, scholarship, research or language learning purposes only