Home » W » Whitney Houston »

Whitney Houston - I Will Always Love You Bass

Artists:  A B C D E F G H I J K L M N O P Q R S T U V W X Y Z # 

I Will Always Love You Bass

(ver. 1) Click to play this song!
Whitney Houston
 Tunning: B Tuning (B E A D G)


VERSE:

G|----------------------|
D|----------------------|
A|----------5-4~---2~---|
E|------4-5-------------|
B|-3~-------------------|


VERSE 2:

G|--------------------------------------------|
D|--------------------------------------------|
A|-0---0-0---0---0-0--------------------------|
E|--------------------4--2--2-0--------0--0h2-|
B|--------------------------------3--3--------|


G|------------------------------------------------|
D|------------------------------------------------|
A|-0---0-0------0---0-0---------------------------|
E|----------0h2----------4--2--2-0--0------0--0h2-|
B|------------------------------------3--3--------|


CHORUS:

G|-----------------------|
D|-----------------------|
A|-----------------------|
E|-5--4-2--0------0--0h2-|
B|-----------3--3--------|x2


G|----------------------|
D|----------------------|
A|-0--0-0------0--0-----|
E|---------0h2------0~--|
B|----------------------|


SAX SOLO:

G|---------------------------------------------|
D|---------------------------------------------|
A|-0--0-0------0--0-0--------------------------|
E|---------0h2---------4--2--2-0--------0--0h2-|
B|---------------------------------3--3--------|

G|------------------------------------------------|
D|------------------------------------------------|
A|-0--0-0------0--2-3-4---------------------------|
E|---------0h2--------------2--2-0--0------0--0h2-|
B|-----------------------2------------3--3--------|


VERSE 3:

G|------------------------------------------|
D|------------------------------------------|
A|-0--0-0--0--0-0---------------------------|
E|-----------------4--2--2-0--0------0--0h2-|
B|------------------------------3--3--------|

G|--------------------------------------------|
D|--------------------------------------------|
A|-0--0-0--------0--2-3-4---------------------|
E|-----------2h4--------------2--2-0------0~--|
B|---------4---------------2----------3~------|


CHORUS 2:

G|---------------------------------------------------|
D|---------------------------------------------------|
A|-2--1------------------2---------------------------|
E|------4--2-0--0-2--2h4-------2---4--2-------2--2h4-|
B|---------------------------4---4-------2--2--------|

G|-------------------------------------------------------17----|
D|----------------------------------------------------/17--17\-|
A|-2--1------------------2-------------------------------------|
E|------4--2-0--0-2--2h4-------2---4--2------------------------|
B|---------------------------4---4-------2--4--5--7------------|

G|--------------------------------------------|
D|--------------------------------------------|
A|-2--1------------------2--1-----------------|
E|------4--2-0--0-2-4-6-------4--2-0---2-4-6--|
B|--------------------------------------------|
                                      

END:
                              
G|----------------------------4~-|
D|----------------------------4~-|
A|-2-/7~-----9-7-6~---6-/9~---2~-|
E|---------7---------------------|
B|-------------------------------|

            
Submit corrections

↑ Back to top | Tablatures and chords for acoustic guitar and electric guitar, ukulele, drums are parodies/interpretations of the original songs. You may use it for private study, scholarship, research or language learning purposes only