Home » W » Whitney Houston »

Whitney Houston - How Will I Know Bass

Artists:  A B C D E F G H I J K L M N O P Q R S T U V W X Y Z # 

How Will I Know Bass

(ver. 1) Click to play this song!
Whitney Houston
Drums Start
      W       W       W       W    
G||-------|-------|-------|-------|
D||-------|-------|-------|-------|
A||--(R)--|--(R)--|--(R)--|--(R)--|
E||-------|-------|-------|-------|


Keys Enter
     W       W       W       H.       Q
G|-------|-------|-------|-----------------|
D|-------|-------|-------|-----------------|
A|--(R)--|--(R)--|--(R)--|--(R)------------|
E|-------|-------|-------|-----------/12\--|

 
   Band Enters
                         
    E   E   E  E  E  E  E   E  |   E   E  E   E  E   E  E  E   
G|-----------------------------|-----------------8------8-----|
D|-------------8--9-----9--11--|---L--11-----11-----11--------|
A|-(R)--9--11------------------|---------------------------9--|
E|-----------------------------|------------------------------|


    E  S S  E  E  E  E  E  E      E  E   E  E   E  E  E  E  
G|----------------------------|-----------------------------|
D|-------------8--9-----8--9--|--11-----11-----11--9--8-----|
A|-(R)-9-9-11-----------------|--------------------------9--|
E|----------------------------|------9------9---------------|


    E   E   E  E  E  E  E   E  |   E   E  E   E  E   E  E  E   
G|-----------------------------|-----------------8------8-----|
D|-------------8--9-----9--11--|---L--11-----11-----11--------|
A|-(R)--9--11------------------|---------------------------9--|
E|-----------------------------|------------------------------|


    E  S S  E  E  E  E  E  E      E  E   E  E   E  E  E  E  
G|----------------------------|-----------------------------|
D|-------------8--9-----8--9--|--11-----11-----11--9--8-----|
A|-(R)-9-9-11-----------------|--------------------------9--|
E|----------------------------|------9------9---------------|
                          

   Verse
                                                    
    E     E   E  E  E  E  E  E      Q    E   E  E  E  E  E   
G|------------------------------|---------------------------|
D|---------------8--9--------9--|--11----8--11--------------|
A|-(R)----9--11-----------------|---------------------------|
E|------------------------------|---------------------------|


    E  S S  E  E  E  E  E  E      E  E   E  E  E  E  E  E   
G|----------------------------|----------------------------|
D|-------------8--9--------8--|--11--8--11-----------------|
A|-(R)-9-9-11-----------------|----------------------------|
E|----------------------------|----------------------------|


    E     E   E  E  E  E  E  E      Q    E   E  E  E  E  E   
G|------------------------------|---------------------------|
D|---------------8--9--------9--|--11----8--11--------------|
A|-(R)----9--11-----------------|---------------------------|
E|------------------------------|---------------------------|


    E  S S  E  E  E  E  E  E      E  E   E  E  E  E  E  E   
G|----------------------------|----------------------------|
D|-------------8--9--------8--|--11--8--11-----------------|
A|-(R)-9-9-11-----------------|----------------------------|
E|----------------------------|----------------------------|


    E     E   E  E  E  E  E  E      Q    E   E  E  E  E  E   
G|------------------------------|---------------------------|
D|---------------8--9--------9--|--11----8--11--------------|
A|-(R)----9--11-----------------|---------------------------|
E|------------------------------|---------------------------|


    E  S S  E  E  E  E  E  E      E  E   E  E  E  E  E  E   
G|----------------------------|----------------------------|
D|-------------8--9--------8--|--11--8--11-----------------|
A|-(R)-9-9-11-----------------|----------------------------|
E|----------------------------|----------------------------|


    E     E   E  E  E  E  E  E      Q    E   E  E  E  E  E   
G|------------------------------|---------------------------|
D|---------------8--9--------9--|--11----8--11--------------|
A|-(R)----9--11-----------------|---------------------------|
E|------------------------------|---------------------------|


    E  S S  E  E  E  E  E  E      E  E   E  E  E  E  E  E   
G|----------------------------|----------------------------|
D|-------------8--9--------8--|--11--8--11-----------------|
A|-(R)-9-9-11-----------------|----------------------------|
E|----------------------------|----------------------------|


   Pre-Chorus
                                    
    Q.         H        E     Q.     H        E   
G|-------------------------|---------------------|
D|-------------------------|--8------8--------8--|
A|--9----------9--------9--|---------------------|
E|-------------------------|---------------------|


     Q.      H         E     H        Q    E   E   
G|------------------------|-----------------------|
D|------------------------|--9--------9----9--11--|
A|--11------11--------11--|-----------------------|
E|------------------------|-----------------------|


    Q.     H        E     Q.     H        E   
G|---------------------|---------------------|
D|---------------------|--8------8--------8--|
A|--9------9--------9--|---------------------|
E|---------------------|---------------------|


     Q.      H         E     E  E  E  E  E  E  Q      
G|------------------------|--------------------------|
D|------------------------|--9--9--9-----------------|
A|--11------11--------11--|-------------------/9\----|
E|------------------------|--------------------------|


    Chorus

    E   E   E  E  E  E  E   E  |   E   E  E   E  E   E  E  E   
G|-----------------------------|-----------------8------8-----|
D|-------------8--9-----9--11--|---L--11-----11-----11--------|
A|-(R)--9--11------------------|---------------------------9--|
E|-----------------------------|------------------------------|


    E  S S  E  E  E  E  E  E      E  E   E  E   E  E  E  E  
G|----------------------------|-----------------------------|
D|-------------8--9-----8--9--|--11-----11-----11--9--8-----|
A|-(R)-9-9-11-----------------|--------------------------9--|
E|----------------------------|------9------9---------------|

    E   E   E  E  E  E  E   E  |   E   E  E   E  E   E  E  E   
G|-----------------------------|-----------------8------8-----|
D|-------------8--9-----9--11--|---L--11-----11-----11--------|
A|-(R)--9--11------------------|---------------------------9--|
E|-----------------------------|------------------------------|


    E  S S  E  E  E  E  E  E      E  E   E  E   E  E  E  E  
G|----------------------------|-----------------------------|
D|-------------8--9-----8--9--|--11-----11-----11--9--8-----|
A|-(R)-9-9-11-----------------|--------------------------9--|
E|----------------------------|------9------9---------------|

    E   E   E  E  E  E  E   E  |   E   E  E   E  E   E  E  E   
G|-----------------------------|-----------------8------8-----|
D|-------------8--9-----9--11--|---L--11-----11-----11--------|
A|-(R)--9--11------------------|---------------------------9--|
E|-----------------------------|------------------------------|


    E  S S  E  E  E  E  E  E      E  E   E  E   E  E  E  E  
G|----------------------------|-----------------------------|
D|-------------8--9-----8--9--|--11-----11-----11--9--8-----|
A|-(R)-9-9-11-----------------|--------------------------9--|
E|----------------------------|------9------9---------------|

    E   E   E  E  E  E  E   E  |   E   E  E   E  E   E  E  E   
G|-----------------------------|-----------------8------8-----|
D|-------------8--9-----9--11--|---L--11-----11-----11--------|
A|-(R)--9--11------------------|---------------------------9--|
E|-----------------------------|------------------------------|


    E  S S  E  E  E  E  E  E      E  E   E  E   E  E  E  E  
G|----------------------------|-----------------------------|
D|-------------8--9-----8--9--|--11-----11-----11--9--8-----|
A|-(R)-9-9-11-----------------|--------------------------9--|
E|----------------------------|------9------9---------------|


Verse 2

    E     E   E  E  E  E  E  E      Q    E   E  E  E  E  E   
G|------------------------------|---------------------------|
D|---------------8--9--------9--|--11----8--11--------------|
A|-(R)----9--11-----------------|---------------------------|
E|------------------------------|---------------------------|


    E  S S  E  E  E  E  E  E      E  E   E  E  E  E  E  E   
G|----------------------------|----------------------------|
D|-------------8--9--------8--|--11--8--11-----------------|
A|-(R)-9-9-11-----------------|----------------------------|
E|----------------------------|----------------------------|


    E     E   E  E  E  E  E  E      Q    E   E  E  E  E  E   
G|------------------------------|---------------------------|
D|---------------8--9--------9--|--11----8--11--------------|
A|-(R)----9--11-----------------|---------------------------|
E|------------------------------|---------------------------|


    E  S S  E  E  E  E  E  E      E  E   E  E  E  E  E  E   
G|----------------------------|----------------------------|
D|-------------8--9--------8--|--11--8--11-----------------|
A|-(R)-9-9-11-----------------|----------------------------|
E|----------------------------|----------------------------|


   Pre-Chorus  
                                  
    Q.         H        E     Q.     H        E   
G|-------------------------|---------------------|
D|-------------------------|--8------8--------8--|
A|--9----------9--------9--|---------------------|
E|-------------------------|---------------------|


     Q.      H         E     H        Q    E   E   
G|------------------------|-----------------------|
D|------------------------|--9--------9----9--11--|
A|--11------11--------11--|-----------------------|
E|------------------------|-----------------------|


    Q.     H        E     Q.     H        E   
G|---------------------|---------------------|
D|---------------------|--8------8--------8--|
A|--9------9--------9--|---------------------|
E|---------------------|---------------------|


     Q.      H         E     E  E  E  E  E  E  Q      
G|------------------------|--------------------------|
D|------------------------|--9--9--9-----------------|
A|--11------11--------11--|-------------------/9\----|
E|------------------------|--------------------------|


    Chorus

    E   E   E  E  E  E  E   E  |   E   E  E   E  E   E  E  E   
G|-----------------------------|-----------------8------8-----|
D|-------------8--9-----9--11--|---L--11-----11-----11--------|
A|-(R)--9--11------------------|---------------------------9--|
E|-----------------------------|------------------------------|


    E  S S  E  E  E  E  E  E      E  E   E  E   E  E  E  E  
G|----------------------------|-----------------------------|
D|-------------8--9-----8--9--|--11-----11-----11--9--8-----|
A|-(R)-9-9-11-----------------|--------------------------9--|
E|----------------------------|------9------9---------------|


    E   E   E  E  E  E  E   E  |   E   E  E   E  E   E  E  E   
G|-----------------------------|-----------------8------8-----|
D|-------------8--9-----9--11--|---L--11-----11-----11--------|
A|-(R)--9--11------------------|---------------------------9--|
E|-----------------------------|------------------------------|


    E  S S  E  E  E  E  E  E      E  E   E  E   E  E  E  E  
G|----------------------------|-----------------------------|
D|-------------8--9-----8--9--|--11-----11-----11--9--8-----|
A|-(R)-9-9-11-----------------|--------------------------9--|
E|----------------------------|------9------9---------------|


    E   E   E  E  E  E  E   E  |   E   E  E   E  E   E  E  E   
G|-----------------------------|-----------------8------8-----|
D|-------------8--9-----9--11--|---L--11-----11-----11--------|
A|-(R)--9--11------------------|---------------------------9--|
E|-----------------------------|------------------------------|


    E  S S  E  E  E  E  E  E      E  E   E  E   E  E  E  E  
G|----------------------------|-----------------------------|
D|-------------8--9-----8--9--|--11-----11-----11--9--8-----|
A|-(R)-9-9-11-----------------|--------------------------9--|
E|----------------------------|------9------9---------------|


    E   E   E  E  E  E  E   E  |   E   E  E   E  E   E  E  E   
G|-----------------------------|-----------------8------8-----|
D|-------------8--9-----9--11--|---L--11-----11-----11--------|
A|-(R)--9--11------------------|---------------------------9--|
E|-----------------------------|------------------------------|


                               Chorus Into Bridge
                                                    "If he..." 
    E  S S  E  E  E  E  E  E      E  E   E  E  E  E  E  E    
G|----------------------------|----------------------------|
D|-------------8--9-----8--9--|--11-----11-----------8--9--|
A|-(R)-9-9-11-----------------|----------------------------|
E|----------------------------|------9------9--------------|


 Bridge

  "loves   me"                                "If he..."                                           
     Q      E   E  Q    Q       Q    Q    Q    E  E   
G|---------------------------|-----------------------|
D|--11-----11--11------------|-----------------8--9--|
A|---------------------------|-----------------------|
E|---------------------------|-----------------------|


   "Loves me not"
     Q     E   E  Q    Q       Q    Q    Q    E  E   
G|--------------------------|-----------------------|
D|--11----11--11------------|-----------------8--9--|
A|--------------------------|-----------------------|
E|--------------------------|-----------------------|


     Q     E   E  Q    Q       Q    Q    Q    E  E   
G|--------------------------|-----------------------|
D|--11----11--11------------|-----------------8--9--|
A|--------------------------|-----------------------|
E|--------------------------|-----------------------|


     Q     E   E  Q    Q       Q    Q    Q   E  E     
G|--------------------------|----------------------|
D|--11----11--11------------|----------------------|
A|--------------------------|----------------9--9--|
E|--------------------------|----------------------|
  
                       
    Q    E  E  E! E! E! E!    E! E! E! E! E! E! E  E   
G|-------------------------|--------------------------|
D|--8----8--8--8--8--8--8--|--8--8--8--8--8--8-----8--|
A|-------------------------|--------------------9-----|
E|-------------------------|--------------------------|

                                            
    Q    E  E  E! E! E! E!     E  E   E  E   E  E   Q      
G|-------------------------|------------------------------|
D|--9----9--9--9--9--9--9--|--11-----11-----11------------|
A|-------------------------|-----------------------/9\----|
E|-------------------------|------9------9------9---------|


  Solo/Key Change     
                  
    E   E  E  E  E  E  E  E     E  E  E  E  E  E  E  E   
G|---------------------------|--------------5-----5-----|
D|------------5--6-----6--8--|--L--8-----8-----8--------|
A|-(R)--6--8-----------------|-----------------------6--|
E|---------------------------|--------------------------|


    E  S S E  E  E  E  E  E     E  E  E  E  E  E  E  E    
G|---------------------------|--------------------------|
D|------------5--6-----5--6--|--8-----8-----8--6--5-----|
A|-(R)-6-6-8-----------------|-----------------------6--|
E|---------------------------|-----6-----6--------------|

    E   E  E  E  E  E  E  E     E  E  E  E  E  E  E  E   
G|---------------------------|--------------5-----5-----|
D|------------5--6-----6--8--|--L--8-----8-----8--------|
A|-(R)--6--8-----------------|-----------------------6--|
E|---------------------------|--------------------------|


    E  S S E  E  E  E  E  E     E  E  E  E  E  E  E  E    
G|---------------------------|--------------------------|
D|------------5--6-----5--6--|--8-----8-----8--6--5-----|
A|-(R)-6-6-8-----------------|-----------------------6--|
E|---------------------------|-----6-----6--------------|


Final Chorus

    E   E  E  E  E  E  E  E     E  E  E  E  E  E  E  E   
G|---------------------------|--------------5-----5-----|
D|------------5--6-----6--8--|--L--8-----8-----8--------|
A|-(R)--6--8-----------------|-----------------------6--|
E|---------------------------|--------------------------|


    E  S S E  E  E  E  E  E     E  E  E  E  E  E  E  E    
G|---------------------------|--------------------------|
D|------------5--6-----5--6--|--8-----8-----8--6--5-----|
A|-(R)-6-6-8-----------------|-----------------------6--|
E|---------------------------|-----6-----6--------------|


    E   E  E  E  E  E  E  E     E  E  E  E  E  E  E  E   
G|---------------------------|--------------5-----5-----|
D|------------5--6-----6--8--|--L--8-----8-----8--------|
A|-(R)--6--8-----------------|-----------------------6--|
E|---------------------------|--------------------------|


    E  S S E  E  E  E  E  E     E  E  E  E  E  E  E  E    
G|---------------------------|--------------------------|
D|------------5--6-----5--6--|--8-----8-----8--6--5-----|
A|-(R)-6-6-8-----------------|-----------------------6--|
E|---------------------------|-----6-----6--------------|


    E   E  E  E  E  E  E  E     E  E  E  E  E  E  E  E   
G|---------------------------|--------------5-----5-----|
D|------------5--6-----6--8--|--L--8-----8-----8--------|
A|-(R)--6--8-----------------|-----------------------6--|
E|---------------------------|--------------------------|


    E  S S E  E  E  E  E  E     E  E  E  E  E  E  E  E    
G|---------------------------|--------------------------|
D|------------5--6-----5--6--|--8-----8-----8--6--5-----|
A|-(R)-6-6-8-----------------|-----------------------6--|
E|---------------------------|-----6-----6--------------|


    E   E  E  E  E  E  E  E     E  E  E  E  E  E  E  E   
G|---------------------------|--------------5-----5-----|
D|------------5--6-----6--8--|--L--8-----8-----8--------|
A|-(R)--6--8-----------------|-----------------------6--|
E|---------------------------|--------------------------|


    E  S S E  E  E  E  E  E     E  E  E  E  E  E  E  E    
G|---------------------------|--------------------------|
D|------------5--6-----5--6--|--8-----8-----8--6--5-----|
A|-(R)-6-6-8-----------------|-----------------------6--|
E|---------------------------|-----6-----6--------------|


Outro

    E   E  E  E  E  E  E  E     E  E  E  E  E  E  E  E   
G|---------------------------|--------------5-----5-----|
D|------------5--6-----6--8--|--L--8-----8-----8--------|
A|-(R)--6--8-----------------|-----------------------6--|
E|---------------------------|--------------------------|


    E  S S E  E  E  E  E  E     E  E  E  E  E  E  E  E    
G|---------------------------|--------------------------|
D|------------5--6-----5--6--|--8-----8-----8--6--5-----|
A|-(R)-6-6-8-----------------|-----------------------6--|
E|---------------------------|-----6-----6--------------|

    E   E  E  E  E  E  E  E     E  E  E  E  E  E  E  E   
G|---------------------------|--------------5-----5-----|
D|------------5--6-----6--8--|--L--8-----8-----8--------|
A|-(R)--6--8-----------------|-----------------------6--|
E|---------------------------|--------------------------|


    E  S S E  E  E  E  E  E     E  E  E  E  E  E  E  E    
G|---------------------------|--------------------------||
D|------------5--6-----5--6--|--8-----8-----8--6--5-----||
A|-(R)-6-6-8-----------------|-----------------------6--||
E|---------------------------|-----6-----6--------------||


            
Submit corrections

↑ Back to top | Tablatures and chords for acoustic guitar and electric guitar, ukulele, drums are parodies/interpretations of the original songs. You may use it for private study, scholarship, research or language learning purposes only