Home » W » White Zombie »

White Zombie - Love Razor Tabs

Artists:  A B C D E F G H I J K L M N O P Q R S T U V W X Y Z # 

Love Razor Tabs

(ver. 1) Click to play this song!
White Zombie
 Rating:
4.4/5 (7 votes)
                [Intro]By Leonardo P.  E Tuning

e|---------------------------------------------------------------------------|
B|---------------------------------------------------------------------------|
G|-------------------------------------------------------------TR--232323----|
D|---------------------------------------------------------------------------|
A|------------------------------------2-2-4-xxxx--2-2-4----------------------|
E|-3-2-1-2-5--3-2-1-2-5--3-2-1-2-5-{--0-0-2-xxxx--0-0-2-pb-5-----------------|

e|--------------------------------------------------------------------|
B|--------------------------------------------------------------------|
G|--------------------------------------------------------------------|
D|--------------------------------------------------------------------|
A|-2-2-4-xxxxx-2-2-4-------------[----------------8-7------------5-6--|
E|-0-0-2-xxxxx-0-0-2--2-1-2-0-5--[--0-4-3-0-6-5-0-----0-6-5--7-6------|


[Verse]

e|------------------------------------------------------------------------------------------|
B|------------------------------------------------------------------------------------------|
G|------------------------------------------------------------------------------------------|
D|-------6-------------6---------------6--------------6--------------8-------------8--------|
A|-6--6---5-6-5--6--6---5-6-5--4-6--6---5-6-5--4-6-6---5-6-5--6-8-8---7-9-8-6-8-8----7-8-7--|
E|-4---5---------4---5---------2\4---5---------2\4--5---------4\6---7-------4\6---7---------|

e|--------------------------------------------------------------------------------------------------|
B|--------------------------------------------------------------------------------------------------|
G|--------------------------------------------------------------------------------------------------|
D|--------------------------[--7-----]--------------------------------------------------------------|
A|-4\6----7-6----7-6----7-6-[--5--7--]-6\8-88-9-8-88-10/8-88-4/6-66-7/6-66-9/66--6-8-88-98-88-98-|--|
E--2\4-44-5-4-44-5-4-44-5-4-------5----4\6-66-7\6-66-9-/6-66-2/4-44-5/4-44-7/44--4\6-66-76-66-76----|

[Chorus]

e|--------------------------------------------------------------------------------------|
B|--------------------------------------------------------------------------------------|
G|--------------------------------------------------------------------------------------|
D|-----------------------------------------------------------4-----5----7----4-----5----|
A|-4/6-66-7-66-7-66---8-8--8-------------8-8--8-----------------------------------------|
E|-2/4-44-5-44-5-44---6-6--6--4-6-7-6-4--6-6--6-p-3-0-3-0--2---2-3---3--5--2---2-3---3--|

e|----------------------------------------------------------------------------------------------|
B|----------------------------------------------------------------------------------------------|
G|----------------------------------------------------------------------------------------------|
D|----------------------------------------------------------------------------------------------|
A|-7777-7777-7777-7777-]----------------8-7-------------5-6----0-1-2-0-3-4-0-3-4-0-4-5-0-4-5-6--|
E|-5555-5555-5555-5555-]-0 4-3-0-6-5-0------0-6-5-0 7-6-----------------------------------------|


[Outro]

e|--------------------------------------------------------------------------------------|
B|--------------------------------------------------------------------------------------|
G|--------------------------------------------------------------------------------------|
D|-----------------------------------------------------7\9-10-9----- -------------------|
A|-5\7-8-7---------------5------5-7--{---5-7--10-9--[--5\7-8--7-----10-9-----5-----5-7--|
E|---------0-0-8-7-0-5-6---6-5--3-5--{---3-5---8-7--[-----------0-0-8-7-0-6----6-5-3-5--|

e|---------------------------------------------------------------------------------------|
B|---------------------------------------------------------------------------------------|
G|---------------------------------------------------------------------------------------|
D|-7-9-10-9--------------------------------------7-9-10-9--------------------------------|
A|-5\7-8--7-----10-9-------5-{-5-6-5-6-5-6-5-6-}-5\7-8--7------8-7-6-5--]-5-7---10-9--2--|
E|----------0-0-8--7-0-5-6---{-3-4-3-4-3-4-3-4-}-----------0-0-6-5-4-3--]-3-5---8--7--0--|            
Submit corrections

↑ Back to top | Tablatures and chords for acoustic guitar and electric guitar, ukulele, drums are parodies/interpretations of the original songs. You may use it for private study, scholarship, research or language learning purposes only