Home » W » White Lion »

White Lion - Baby Be Mine Tabs

Artists:  A B C D E F G H I J K L M N O P Q R S T U V W X Y Z # 

Baby Be Mine Tabs

(ver. 1) Click to play this song!
White Lion
 Rating:
2.9/5 (22 votes)
                Solo:                                                                     
        b(3/4)      b(3/4)         b(3/4)                           
e|---------------------------------------------------------------------|
B|---------------------------------------------------------------------|
G|------6^-----6----6^------6------6^-----6-----7--------7--------7----|
D|---------------------------------------------------5------5-------5--|
A|---------------------------------------------------------------------|
E|---------------------------------------------------------------------|

        b(3/4           Harm. bend (1/2)               Harm. bend (1/2)              
e|---------------------------------------------------------------------|
B|------5^----5p3----5(17^)-------------------5p3----5(17^)------------|
G|---------------------------------------------------------------------|
D|---------------------------------------------------------------------|
A|---------------------------------------------------------------------|
E|---------------------------------------------------------------------|

                 b (1/2)                                  Tap
e|------5--------------------------------------------------------------|
B|---------------6^-------5---------3h5p3--------3h5------22-----------|
G|---------------------------------------------------------------------|
D|---------------------------------------------------------------------|
A|---------------------------------------------------------------------|
E|---------------------------------------------------------------------|


    
e|---------------------------------------------------------------------|
B|---------------------------------------------------------------------|
G|------14---16---18------14---16---18--------14---16---18-------------|
D|---------------------------------------------------------------------|
A|---------------------------------------------------------------------|
E|---------------------------------------------------------------------|


e|---------------------------------------------------------------------|
B|------15---14-------------15---14---------------15---14--------------|
G|----------------12-------------------12-------------------12---------|
D|---------------------------------------------------------------------|
A|---------------------------------------------------------------------|
E|---------------------------------------------------------------------|

       b(1)
e|---------------------------------------------------------------------|
B|-----17^----17p15----19-----------17p15----19------------------------|
G|---------------------------------------------------------------------|
D|---------------------------------------------------------------------|
A|---------------------------------------------------------------------|
E|---------------------------------------------------------------------|
           
             b (1/2)
e|----17----------------------------------------------------17---------|
B|-----------18^-----17--------------15h17p15------15h17---------------|
G|---------------------------------------------------------------------|
D|---------------------------------------------------------------------|
A|---------------------------------------------------------------------|
E|---------------------------------------------------------------------|

            
Submit corrections

↑ Back to top | Tablatures and chords for acoustic guitar and electric guitar, ukulele, drums are parodies/interpretations of the original songs. You may use it for private study, scholarship, research or language learning purposes only