» » »

While She Sleeps - Tabs

Artists:  A B C D E F G H I J K L M N O P Q R S T U V W X Y Z # 

Tabs

(ver. 1) Click to play this song!
While She Sleeps
 Rating:
4.3/5 (28 votes)


  lessons Tabs too difficult? Try these video lessons and learn fast
 
                [Intro]

e|------------------------|-------------------------|--------------------|----------|
B|------------------------|-------------------------|-------5-----5--4---|-------5--|
G|------------------------|-------------------------|-------6-----6--4---|-------4--|
D|--4--4--4--4--4--4--4--4|--4--4--4--4--4--4--4----|----6---------------|----6-----|
A|--2--2--2--2--2--2--2--2|--3--3--3--3--3--3--3--0-|-4--------4--------6/7---------|
E|------------------------|-------------------------|--------------------|----------|
                      A    E*    F#       
e|----|----------------5----x----2--------------------------------------------------|
B|----|----------------5----x----2--------------------------------------------------|
G|----|------6---------6----4----3--------------------------------------------------|
D|----|------6---------7----2----4--------------------------------------------------|
A|-7--|---7------------7----x----4--------------------------------------------------|
E|----|6--------6------5----4----2--------------------------------------------------|
                ^ After this start strumming             
Submit corrections



         lessons Hard to play? Try these video lessons and learn fast  lessons
        
↑ Back to top | Tablatures and chords for acoustic guitar and electric guitar, ukulele, drums are parodies/interpretations of the original songs. You may use it for private study, scholarship, research or language learning purposes only