» » »

Weezer - If Youre Wondering If I Want You To I Want You To Bass

Artists:  A B C D E F G H I J K L M N O P Q R S T U V W X Y Z # 

If Youre Wondering If I Want You To I Want You To Bass

(ver. 1) Click to play this song!
Weezer
 Rating:
4/5 (4 votes)


 If Youre Wondering If I Want You To I Want You To lessons Tabs too difficult? Try these video lessons and learn fast
 
                (If You’re Wondering If I Want You To) I Want You To

Intro
[No Bass]

Verse 1
g-------------------------------------------------------------------------|
d-------------------------------------------------------------------------|
a-5-5--5-------------2-2--2-----------------------------------------------|
e--------7-5---[x4]----------4-2---[x4]---33333333---6-6-6h8p6--555555----|

g-------------------------------------------------------------------------|
d-------------------------------------------------------------------------|
a-5-5--5-------------2-2--2-----------------------------------------------|
e--------7-5---[x8]----------4-2---[x4]---33333333---6-6-6h8p6--555555----|

g------------------------|
d------------------------|
a-5-5--5-------------5/--| ** 5/ played after the fourth time. Slide up fret.
e--------7-5---[x4]------|

Pre-Chorus
[No Bass]

Chorus
g---------------------------------------------------------------------------|
d--------7-------7--------4-------4-----------------------------------------|
a-5555555-5555555--2222222-2222222---------------------5[x16]---------------|
e-----------------------------------33333333-55555555-----------------------|

Verse 2
g-----------------------------------------------------------------------------|
d-----------------------------------------------------------------------------|
a------[silent]--------2-2--2-------------------------------------------------|
e----------------------------4-2---[x4]---33333333---6-6-6h8p6--555555--------|

g-------------------------------------------------------------------------------|
d-------------------------------------------------------------------------------|
a-5-5--5------------------------------------------------------------------------|
e--------7-5-------[fill]-1010-99-88-77-66-5------------------------------------|

g------------------------------------------------------------------------------|
d------------------------------------------------------------------------------|
a-5-5--5-------------2-2--2----------------------------------------------------|
e--------7-5---[x4]----------4-2---[x4]---33333333---6-6-6h8p6--555555---------|

g-------------------------------------|
d-------------------------------------|
a-5-5--5-------------5/---| ←---| 5/ played after the fourth time. Slide up fret.
e--------7-5---[x4]-------------------|

Pre-Chorus 2
[No Bass]

Chorus 2
g-----------------------------------------------------------------------------|
d--------7-------7--------4-------4-------------------------------------------|
a-5555555-5555555--2222222-2222222--------------------------------------------|
e-----------------------------------33333333-55555555--7[x16]-----------------|

g---------------------------------------------------------------------------|
d--------7-------7--------4-------4-----------------------------------------|
a-5555555-5555555--2222222-2222222---------------------5[x16]---------------|
e-----------------------------------33333333-55555555-----------------------|

Bridge
g------------------------------------------------------|
d------------------------------------------------------|
a-------0~--1~--2~------------------0~--0~-------------|
e-3~--------------------3~--2~-------------------------|

Pre-Chorus 3
[No Bass]

Chorus 3
g-----------------------------------------------------------------------------|
d--------7-------7--------4-------4-------------------------------------------|
a-5555555-5555555--2222222-2222222--------------------------------------------|
e-----------------------------------33333333-55555555--7[x16]-----------------|

g---------------------------------------------------------------------------|
d--------7-------7--------4-------4-----------------------------------------|
a-5555555-5555555--2222222-2222222---------------------5[x16]---------------|
e-----------------------------------33333333-55555555-----------------------|
            
Submit corrections



        If Youre Wondering If I Want You To I Want You To lessons Hard to play? Try these video lessons and learn fast If Youre Wondering If I Want You To I Want You To lessons
        
↑ Back to top | Tablatures and chords for acoustic guitar and electric guitar, ukulele, drums are parodies/interpretations of the original songs. You may use it for private study, scholarship, research or language learning purposes only