Home » W » We Came As Romans »

We Came As Romans - The Roads That Dont End And The Views That Never Cease Tabs

Artists:  A B C D E F G H I J K L M N O P Q R S T U V W X Y Z # 

The Roads That Dont End And The Views That Never Cease Tabs

(ver. 1) Click to play this song!
We Came As Romans
Aight, so this is my first tab, please go easy on me. I found that there were no 
tabs to this song, so I took matters into my own hands

Verse 1

0:02-0:08

e|------------------------------------|
B|------------------------------------|
G|------------------------------------|
D|------------------------------------|  X2
A|--00--00-----00----00---00-00-------|
D|--00--00-----00----00---00-00-------|

0:08-0:15

e|---------------------------------------------------|
B|---------------------------------------------------|
G|---------------------------------------------------|
D|--------7------------------------------------------| X2
A|----8h10-----------5-5h8------3-3h7----------------|
D|--0-------88885555-------3333-------777555---------|
    *        

0:15-0:21

e|---------------------------------------------------|
B|---------------------------------------------------|
G|---------------------------------------------------|
D|--------7------------------------------------------| X2
A|----8h10--0-00-----5-5h8------3-3h7----------------|
D|--0-------0-00---0-------3333-------777555---------|
    *       * **   *

0:21-0:35

e|---------------------------------------------------------------------------|
B|---------------------------------------------------------------------------|
G|---------------------------------------------------------------------------|
D|-----------------------------3333-7-3----------------------------3333-\pH/-|
A|--00-0-5-5h8-00--5-5h8-00--7-7777-----00-0-5-5h8-00--5-5h8-00--7-7777------|
D|--00-0-------00--------00-------------00-0-------00--------00--------------|
    ** *       **        **             ** *       **        **

e|--------------------------------------------------------------------------|
B|--------------------------------------------------------------------------|
G|--------------------------------------------------------------------------|
D|-----------------------------3333-7-3----------------------------33333333-|
A|--00-0-5-5h8-00--5-5h8-00--7-7777-----00-0-5-5h8-00--5-5h8-00--7-77777777-|
D|--00-0-------00--------00-------------00-0-------00--------00-------------|
    ** *       **        **             ** *       **        ** 

Pre-Chorus

0:35-0:42

e|-------------------|
B|-------------------|
G|-------------------|
D|-------------------|
A|--0---3---10---8---|
D|--0---3---10---8---|

Chorus

0:42-1:06

e|----------------------------------------------|
B|----------------------------------------------|
G|----------------------------------------------|
D|----------------------------------------------|  X4
A|--00000000-33333333-1010101010101010-88888888-|
D|--00000000-33333333-1010101010101010-88888888-|

e|----------|
B|----------|
G|----------|
D|----------|
A|--0-------|
D|--0-------|

Verse 2

1:06-1:20

e|------------------------------|
B|------------------------------|
G|------------------------------|
D|---------3-----------3--------| X4
A|--0-5-0-7--0-0-5-00-7--0------|
D|--0---0----0-0---00----0------|
    *   *    * *   **    *

1:20 – 1:34

e|-------------------------|
B|-------------------------|
G|-------------------------|
D|-------------------------| X4
A|--0---0--0---0------0----|
D|--0---0--0---0------0----|
        *      *      *

1:34-1:40

e|----------|
B|----------|
G|----------|
D|----------|
A|--0-------|
D|--0-------|

Chorus (1:40-2:04)

Verse 3

2:04-2:10

e|---------------------------------------------------|
B|---------------------------------------------------|
G|---------------------------------------------------|
D|--------7------------------------------------------| X2
A|----8h10-----------5-5h8------3-3h7----------------|
D|--0-------88885555-------3333-------777555---------|
    *
2:10-2:16

e|------------------------------------------------------|
B|------------------------------------------------------|
G|------------------------------------------------------|
D|------------------------------------------------------| 
A|--00--00-----00----00---00-00---00--00-----00------00-|
D|--00--00-----00----00---00-00---00--00-----00------00-|

Breakdown

2:17-2:23

e|------------------------------|
B|------------------------------|
G|------------------------------|
D|------------------------------| X2
A|--00--00-----00----00---00-00-|
D|--11--11-----11----11---11-11-|
    **  **     **    **   ** **       

2:23-2:38

e|----------------------------------------------------------------|
B|----------------------------------------------------------------|
G|----------------------------------------------------------------|
D|---------33----33------------33--------33----33-----------------| 
A|--00--00-77-00-77------------77-00--00-77-00-77-----------------|
D|--00--00----00----33s7755-00----00--00----00----33s775500000000-|
    **  **    **            **    **  **    **

e|----------------------------------------------------------------|
B|----------------------------------------------------------------|
G|----------------------------------------------------------------|
D|---------33----33------------33--------33----33--------0--------| 
A|--00--00-77-00-77------------77-00--00-77-00-77--------0--------|
D|--00--00----00----33s7755-00----00--00----00----33s77550--------|
    **  **    **            **    **  **    **

Silence (2:38-2:57)

Chorus 2:57-3:23

Ending

That be it, good luck and happy playing!
            
Submit corrections

↑ Back to top | Tablatures and chords for acoustic guitar and electric guitar, ukulele, drums are parodies/interpretations of the original songs. You may use it for private study, scholarship, research or language learning purposes only