Home » W » Weavers »

Weavers - Yamada-Kun To 7-Nin No Majo Op Tabs

Artists:  A B C D E F G H I J K L M N O P Q R S T U V W X Y Z # 

Yamada-Kun To 7-Nin No Majo Op Tabs

(ver. 1) Click to play this song!
Weavers
[Intro:]

e|-----------------------------------------------------------------(7)-------|
B|---8/7---5--------------4-------------7-4------------------------(7)-------|
G|-----------7-4---7-5-7----5-----4h5-------------------5----------(7)-------| repeat the Intro again
D|-----------------------------7--------------7p5h7-5-9----------------------|
A|---------------------------------------------------------------------------|
E|---------------------------------------------------------------------------|

[Pre chorus Part 1]

e|--7-7--------------7---7--------12---7--7----------7---------7-------------|
B|--8-7---8-8-8------7-8-7-8-8-8--12---8--7--8-8-8---7--8-8-8--7--8-----12---|
G|--9-7---7-7-7------7-7-7-7-7-7--12---9--7--7-7-7---7--7-7-7--7--7-----12---|
D|--------9-9-9--------9---9-9-9-------------9-9-9------9-9-9-----9-----12---|
A|---------------------------------------------------------------------------|
E|---------------------------------------------------------------------------|

[Pre chorus Part 2]

e|-------------------------------------------------------------------3-------|
B|--5-5-5-5-5----7-7-7-7-7---/15-15-15----12-12-12----5-5-5-5-5-5-5--4-7-7-7-|
G|--5-5-5-5-5----7-7-7-7-7---/14-14-14----12-12-12----5-5-5-5-5-5-5--5-7-7-7-|
D|--5-5-5-5-5----7-7-7-7-7---/14-14-14----12-12-12----5-5-5-5-5-5-5--5-7-7-7-|
A|---------------------------------------------------------------------------|
E|---------------------------------------------------------------------------|

[Chourus Part 1]

e|----------------7-7----2--2------------------------------------------------|
B|---5-5----7-7---8-8----3--3------------------------------------------------| repeat The chourus Part 1 again
G|---5-5----7-7---9-9----4--4------------------------------------------------|
D|---5-5----7-7---9-9----4--4------------------------------------------------|
A|---------------------------------------------------------------------------|
E|---------------------------------------------------------------------------|

[Chourus Part 2]
      
e|-------------------7--7----------------------------------------------------|
B|---5-5------4-4----8--8-------15--15--15--15-------------------------------| Part1 play 2 times   
G|---5-5------4-4----9--9-------12--12--12--12-------------------------------| and Part2 too
D|---5-5------4-4----9--9-------12--12--12--12-------------------------------|
A|---------------------------------------------------------------------------|
E|---------------------------------------------------------------------------|

[Bridge Solo]

e|--------------------7-7-7------------10-10-10---------7-7-7-/--------------|
B|-8--8--8-----7-7-7--8-8-8----7---7---8--8--8---7-7-7--8-8-8-/15-15-15------|
G|-9--9--9-----7-7-7--9-9-9----7---7---9--9--9---7-7-7--9-9-9-/14-14-14------|
D|-10-10-10----7-7-7-----------7h9-7h9-10-10-10--7-7-7-----------------------|
A|---------------------------------------------------------------------------|
E|---------------------------------------------------------------------------|

e|-7-7-7--3-3-/7-7-----------------------------------------------------------|
B|-8-8-8--4-4-/8-8-----------------------------------------------------------|
G|-9-9-9--3-3-/7-7-----------------------------------------------------------|
D|--------5-5-/9-9-----------------------------------------------------------|
A|---------------------------------------------------------------------------|
E|---------------------------------------------------------------------------|

e|-----12-12-h14-h15--/7--7-7-7----------------------------------------------|
B|-7-/-12-12--12--12--/7--7-7-7---7-7-7----8-8-8-8-8-8-8---------------------|
G|-7-/-12-12--12--12--/7--8-8-8---7-7-7----7-7-7-7-7-7-7---------------------|
D|-7-/--------------------9-9-9---7-7-7----9-9-9-9-9-9-9---------------------|
A|---------------------------------------------------------------------------|
E|---------------------------------------------------------------------------|

[Ending]

e|-----------------------------------------------------------------------------|
B|---5----5----/7---7----8----8----7---7-----5----5----7----8----8---12---12---|
G|-----5----5--/--7---7----7----7----7---7-----5----5----7----7----7---12---12-|
D|-----5----5--/--7---7----9----9----7---7-----5----5----7----9----9---12---12-|
A|-----------------------------------------------------------------------------|
E|-----------------------------------------------------------------------------|
0            
Submit corrections

↑ Back to top | Tablatures and chords for acoustic guitar and electric guitar, ukulele, drums are parodies/interpretations of the original songs. You may use it for private study, scholarship, research or language learning purposes only