Home » W » Waylon Jennings »

Waylon Jennings - Norwegian Wood Bass

Artists:  A B C D E F G H I J K L M N O P Q R S T U V W X Y Z # 

Norwegian Wood Bass

(ver. 1) Click to play this song!
Waylon Jennings
Tuning: EADG

0:05

G|------------------------------------------------------------------------------------------------|
D|------------------------------------------------------------------------------------------------| x3
A|7-----------------------7-----------------------7-----------------------7-----------------------|
E|------------7-----------------------7-----------------------7-----------------------7-----------|

0:29

G|------------------------------------------------------------------------------------------------|
D|--------9-----------9-----------9-----------9---7-----------7-----------7-----------7-------7---|
A|7-----------7-----------7-----------7-------------------7-----------7-----------7---------------|
E|------------------------------------------------------------------------------------------------|

G|------------------------------------------------------------------------------------------------|
D|--------9-----------9-----------9-----------9---------------------------------------------------|
A|7-----------7-----------7-----------7-----------9-----------9-----------------------------------|
E|------------------------------------------------------------------------7-----------7-----------|

0:45

G|------------------------------------------------------------------------------------------------|
D|------------------------------------------------------------------------------------------------| x4
A|7-----------------------7-----------------------7-----------------------7-----------------------|
E|------------7-----------------------7-----------------------7-----------------------7-----------|

1:18

G|------------------------------------------------------------------------------------------------|
D|--------9-----------9-----------9-----------9---7-----------7-----------7-----------7-------7---|
A|7-----------7-----------7-----------7-------------------7-----------7-----------7---------------|
E|------------------------------------------------------------------------------------------------|

G|------------------------------------------------------------------------------------------------|
D|--------9-----------9-----------9-----------9---------------------------------------------------|
A|7-----------7-----------7-----------7-----------9-----------9-----------------------------------|
E|------------------------------------------------------------------------7-----------7-----------|

1:35

G|------------------------------------------------------------------------------------------------|
D|------------------------------------------------------------------------------------------------| x2
A|7-----------------------7-----------------------7-----------------------7-----------------------|
E|------------7-----------------------7-----------------------7-----------------------7-----------|

G|--------------------------------------------------------------------------------|
D|--------------------------------------------------------------------------------|
A|7-----------------------7-----------------------7---------------------------7---|
E|------------7-----------------------7-----------------------7-------------------|            
Submit corrections

↑ Back to top | Tablatures and chords for acoustic guitar and electric guitar, ukulele, drums are parodies/interpretations of the original songs. You may use it for private study, scholarship, research or language learning purposes only