» » »

Waylon Jennings - Amanda Tabs

Artists:  A B C D E F G H I J K L M N O P Q R S T U V W X Y Z # 

Amanda Tabs

(ver. 1) Click to play this song!
Waylon Jennings
 Rating:
4.3/5 (13 votes)

 Amanda lessons Tabs too difficult? Try these video lessons and learn fast
 
                [Solo]

e|-------------------------|
B|-------------------------|
G|-------------------------|
D|----2-4-2--------4-2-0-2-|
A|-2-4------4/2-0-0-0-0-0--|
E|-------------------------|

e|-------------------------|
B|-------------------------|
G|-------------------------|
D|-----2-4-2---------------|
A|-0-4------4/2-0-2-4-2-0--|
E|---------------0-0-0-0---|
            
Submit corrections


        Amanda lessons Hard to play? Try these video lessons and learn fast Amanda lessons
        
↑ Back to top | Tablatures and chords for acoustic guitar and electric guitar, ukulele, drums are parodies/interpretations of the original songs. You may use it for private study, scholarship, research or language learning purposes only