Home » W » Warrant »

Warrant - I Saw Red Bass

Artists:  A B C D E F G H I J K L M N O P Q R S T U V W X Y Z # 

I Saw Red Bass

(ver. 1) Click to play this song!
Warrant
Tuning: EADG

G|----------------------------------------------------------------|
D|----------------------------------------------------------------|
A|----------------------------------------------------------------|
E|--------------------------------0-------------------------------|

G|----------------------------------------------------------------|
D|----------------------------------------------------------------|
A|5-------------------------------3-------------------------------|
E|----------------------------------------------------------------|

0:12

G|----------------------------------------------------------------|
D|5---------------4---------------2---------------0---------------|
A|----------------------------------------------------------------|
E|----------------------------------------------------------------|

G|----------------------------------------------------------------|
D|----------------------------------------------------------------|
A|3---------------------------------------------------------------|
E|--------------------------------3---------------2---------------|

G|----------------------------------------------------------------|
D|----------------------------------------------------------------|
A|----------------5---------------3-------------------------------|
E|0---------------------------------------------------------------|

G|----------------------------------------------------------------|
D|--------------------------------------------5-------------------| x2
A|----------------0-----------0---3-----5-------------------------|
E|0-----------------------------------------------3---------------|

0:39

G|----------------------------------------------------------------|
D|----------------------------------------------------------------|
A|--------2-------5-----------5---5---------------3-----------3---|
E|0---------------------------------------------------------------|

G|----------------------------------------------------------------|
D|----------------------------------------------------------------|
A|--------2-------5-----------5---5---------------3---------------|
E|0-----------------------------------------------------------0---|

G|----------------------------------------------------------------|
D|----------------------------------------------------------------|
A|----------------0-----------0---0---------------3---------------|
E|0---------------------------------------------------------------|

G|----------------------------------------------------------------|
D|----------------------------------------------------------------|
A|----------------0-------------------------------3---------------|
E|0---------------------------------------------------------------|

G|----------------------------------------------------------------|
D|----------------------------------------------------------------|
A|----------------3-----------3---5-----------5-/-10--------------|
E|------------------------------------------------------------3---|

G|------------------------------------------------|
D|------------------------------------------------|
A|----------------3---------------5---------------|
E|3-----------------------------------------------|

1:12

G|----------------------------------------------------------------|
D|----------------------------------------------------------------|
A|3-----------3---3-----------------------------------------------|
E|--------------------------------0-----------0---0---------------|

G|----------------------------------------------/-7---------------|
D|--------------------------------------------5-------------------|
A|5-----------5---5---------------3-------------------------------|
E|----------------------------------------------------------------|

1:24

G|----------------------------------------------------------------|
D|5---------------4-----------4---2-----------2---0-----------0---|
A|----------------------------------------------------------------|
E|----------------------------------------------------------------|

G|----------------------------------------------------------------|
D|--------------------------------5---------------4-----------4---|
A|3---------------------------3-----------------------------------|
E|----------------------------------------------------------------|

G|----------------------------------------------------------------|
D|2---------------0-----------0-----------------------------------|
A|--------------------------------3---------------------------3---|
E|----------------------------------------------------------------|

G|----------------------------------------------------------------|
D|--------------------------------------------5-------------------| x2
A|----------------0-----------0-2-3-----5-------------------------|
E|0-----------0-----------------------------------3---------------|

1:50

G|----------------------------------------------------------------|
D|----------------------------------------------------------------| x2
A|--------2-------5-----------5---5---------------3---------------|
E|0-----------------------------------------------------------0---|

G|----------------------------------------------------------------|
D|----------------------------------------------------------------|
A|----------------0-----------0---0---------------3---------------|
E|0-----------------------------------------------------------0---|

G|----------------------------------------------------------------|
D|----------------------------------------------------------------|
A|----------------0-------------------------------3---------------|
E|0---------------------------------------------------------------|

G|----------------------------------------------------------------|
D|----------------------------------------------------------------|
A|----------------3-----------3---5-----------5-/-10--------------|
E|------------------------------------------------------------3---|

G|------------------------------------------------|
D|------------------------------------------------|
A|----------------3---------------5---------------|
E|3-----------------------------------------------|

2:23

G|----------------------------------------------------------------|
D|----------------------------------------------------------------|
A|3-----------3---3-----------------------------------------------|
E|--------------------------------0-----------0---0---------------|

G|----------------------------------------------/-7---------------|
D|--------------------------------------------5-------------------|
A|5-----------5---5---------------3-------------------------------|
E|----------------------------------------------------------------|

2:34

G|----------------------------------------------------------------|
D|----------------------------------------------------------------|
A|----3-3-3-3-----3-3-3-3-----5-7-----------------------------7-5-|
E|------------------------------------0-0-0-0-----0-0-0-0---------|

G|----------------------------------------------------------------|
D|--------------------------------------------------------------5-|
A|----5-5-5-5-----5-5-5-5-----5-3-----3-3-3-3-----3-5-3-2-3-2-----|
E|------------------------------------------------------------3---|

G|----------------------------------------------------------------|
D|----------------------------------------------------------------|
A|----3-3-3-3-----3-3-3-3-----5-7-----------------------------7-5-|
E|------------------------------------0-0-0-0-----0-0-0-0---------|

G|----------------------------------------------------------------|
D|----------------------------------------------------------------|
A|----5-5-5-5-----5-5-5-5-----5-3-----3-3-3-3-----3-5-3-2---------|
E|--------------------------------------------------------3-2-0---|

2:57

G|----------------------------------------------------------------|
D|----------------------------------------------------------------| x2
A|--------2-------5-----------5---5---------------3---------------|
E|0-----------------------------------------------------------0---|

G|----------------------------------------------------------------|
D|----------------------------------------------------------------|
A|----------------0-----------0---0---------------3---------------|
E|0-----------------------------------------------------------0---|

G|----------------------------------------------------------------|
D|----------------------------------------------------------------|
A|----------------0-------------------------------3---------------|
E|0---------------------------------------------------------------|

G|----------------------------------------------------------------|
D|----------------------------------------------------------------|
A|----------------3-----------3---5-----------5-/-10--------------|
E|------------------------------------------------------------3---|

G|------------------------------------------------|
D|------------------------------------------------|
A|----------------3---------------5---------------|
E|3-----------------------------------------------|

G|----------------------------------------------------------------|
D|----------------------------------------------------------------|
A|3-----------3---3-----------------------------------------------|
E|--------------------------------0-----------0---0---------------|

G|----------------------------------------------/-7---------------|
D|--------------------------------------------5-------------------|
A|5-----------5---5---------------3-------------------------------|
E|----------------------------------------------------------------|            
Submit corrections

↑ Back to top | Tablatures and chords for acoustic guitar and electric guitar, ukulele, drums are parodies/interpretations of the original songs. You may use it for private study, scholarship, research or language learning purposes only