Home » W » War »

War - Spill The Wine Tabs

Artists:  A B C D E F G H I J K L M N O P Q R S T U V W X Y Z # 

Spill The Wine Tabs

(ver. 1) Click to play this song!
War
The Main Riff for the song is 

e|---------------------------------------------------------------------------|
B|---------------------------------------------------------------------------|
G|---------------------------------------------------------------------------|
D|----3-2--------------------------------------------------------------------|
A|---------1-1-3-------------------------------------------------------------|
E|---------------------------------------------------------------------------|

Every concert I've seen of War's, Stuart Ziff, (the guitar player) always throws in a hammer on at the end

so it would be


e|---------------------------------------------------------------------------|
B|---------------------------------------------------------------------------|
G|---------------------------------------------------------------------------|
D|----3-2--------------------------------------------------------------------|
A|---------1-1-3-1h3p1-------------------------------------------------------|
E|---------------------------------------------------------------------------|


The song Stays the same until the Very end. until, (This goes for the live version too),

The riff changes into


e|---------------------------------------------------------------------------|
B|---------------------------------------------------------------------------|
G|---------------------------------------------------------------------------|
D|---------------------------------------------------------------------------|
A|---5---3---1-1-3~----------------------------------------------------------|
E|---------------------------------------------------------------------------|

I know for a fact this song is correct because I've seen many War concerts and this is DEFINITELY how it is 
played            
Submit corrections

↑ Back to top | Tablatures and chords for acoustic guitar and electric guitar, ukulele, drums are parodies/interpretations of the original songs. You may use it for private study, scholarship, research or language learning purposes only