Home » W » War »

War - Lowrider Tabs

Artists:  A B C D E F G H I J K L M N O P Q R S T U V W X Y Z # 

Lowrider Tabs

(ver. 1) Click to play this song!
War
 Rating:
4.3/5 (26 votes)
                Bassline:
|---------------------------------|
|----------------3----3---3h5-----|
|-------1--3--5-----5---5---------|
|--1-3----------------------------|

   G      C.   Dm7.  C7. C9sus4 
|----3------3-----5----3---3-3----|
|----3------5-----6----5---3-3----|
|----4------5-----5----3---3h4----|
|----5------5-----7----5---3-3----|
|------2--3----5-----3---3--------|
|--3------------------------------|
                             Cmaj9sus4            
Submit corrections

↑ Back to top | Tablatures and chords for acoustic guitar and electric guitar, ukulele, drums are parodies/interpretations of the original songs. You may use it for private study, scholarship, research or language learning purposes only