Home » W » Walk The Moon »

Walk The Moon - Tightrope Tabs

Artists:  A B C D E F G H I J K L M N O P Q R S T U V W X Y Z # 

Tightrope Tabs

(ver. 1) Click to play this song!
Walk The Moon
[Intro]

e|--14-14-14-14-14-------------11-11-11-11-11-11-------------11-11-11-11-11-11-------9--9--9--9--9--9-----|
B|--16-16-16-16-16-------------12-12-12-12-12-12-------------12-12-12-12-12-12------12-12-12-12-12-12-----|
G|------------------------------9--9--9--9--9--9--------------9--9--9--9--9--9-------9--9--9--9--9--9-----|
D|-(14-14-14-14-14)---------------------------------------------------------------------------------------|
A|--------------------------------------------------------------------------------------------------------|
E|--------------------------------------------------------------------------------------------------------|

e|--11-11-11-11-11-11-------9--9--9--9--9--9-------9--9--9--9--9--9--------9--9--9--9--9--9---------------|
B|--12-12-12-12-12-12------12-12-12-12-12-12------12-12-12-12-12-12-------11-11-11-11-11-11---------------|
G|---9--9--9--9--9--9-------9--9--9--9--9--9------11-11-11-11-11-11-------11-11-11-11-11-11---------------|
D|--------------------------------------------------------------------------------------------------------|
A|--------------------------------------------------------------------------------------------------------|
E|--------------------------------------------------------------------------------------------------------|            
Submit corrections

↑ Back to top | Tablatures and chords for acoustic guitar and electric guitar, ukulele, drums are parodies/interpretations of the original songs. You may use it for private study, scholarship, research or language learning purposes only