Home » W » Walk The Moon »

Walk The Moon - Shut Up And Dance Tabs

Artists:  A B C D E F G H I J K L M N O P Q R S T U V W X Y Z # 

Shut Up And Dance Tabs

(ver. 1) Click to play this song!
Walk The Moon

For the solo it's:


e|-------------------------------------------------------|
B|-------9------9--11--9---------------------------------|
G|----------10~----------11--9--8------------------------|
D|----11--------------------------11---------------------|
A|-------------------------------------------------------|
E|-------------------------------------------------------|




e|-------------------------------------------------------|
B|-------9-----9--11--9--11\14~--------------------------|
G|---------10--------------------------------------------|
D|----11-------------------------------------------------|
A|-------------------------------------------------------|
E|-------------------------------------------------------|



e|-----------------------------------------16---18---22--|
B|------------------------14---16---18--16---16----------|
G|------------13----15--13--13---15----------------------|
D|-------15------13--------------------------------------|
A|----13----16-------------------------------------------|
E|-------------------------------------------------------|


e|----11-----13-----14-----16----------------------------|
B|-------14b----16b----17b----19b-19b-19b-19b------------|
G|-------------------------------------------------------|
D|-------------------------------------------------------|
A|-------------------------------------------------------|
E|-------------------------------------------------------|            
Submit corrections

↑ Back to top | Tablatures and chords for acoustic guitar and electric guitar, ukulele, drums are parodies/interpretations of the original songs. You may use it for private study, scholarship, research or language learning purposes only