» » »

Walk The Moon - One Foot Tabs

Artists:  A B C D E F G H I J K L M N O P Q R S T U V W X Y Z # 

One Foot Tabs

(ver. 1) Click to play this song!
Walk The Moon
 Rating:
4.3/5 (19 votes)

 One Foot lessons Tabs too difficult? Try these video lessons and learn fast
 
                [Intro]
e|------8--12---12-10-8-|-----8--12---12-10-8---|
B|--10------------------|--8--------------------|
G|----------------------|-----------------------|
D|----------------------|-----------------------|
A|----------------------|-----------------------|
E|----------------------|-----------------------|

[Verse/Pre-Chorus]- picking as much as needed with occasional 
e|-------------------|          |-------------------|
B|-------------------|          |-------------------|
G|-------------------|          |-------------------|
D|-10--10--10--10----|          |--12--12--12--12---|
A|-------------------|          |-------------------|
E|-------------------|          |-------------------|

[Chorus x2]- listen to song for strumming
e|--8-----(8)----(8)-----x-----|
B|--10-----10-----8------8-----|
G|--9------10-----9------7-----|
D|--10-----10-----10-----10----|
A|--X------X------X------X-----|
E|--X------X------X------X-----|

[Instrumental]
e|------8--12---12-10-8-|-----8--12---12-10-8---|
B|--10------------------|--8--------------------|
G|----------------------|-----------------------|
D|----------------------|-----------------------|
A|----------------------|-----------------------|
E|----------------------|-----------------------|

[Verse/Pre-Chorus]- picking as much as needed with occasional 
e|-------------------|          |-------------------|
B|-------------------|          |-------------------|
G|-------------------|          |-------------------|
D|-10--10--10--10----|          |--12--12--12--12---|
A|-------------------|          |-------------------|
E|-------------------|          |-------------------|

[Chorus x2]- listen to song for strumming
e|--8-----(8)----(8)-----x-----|
B|--10-----10-----8------8-----|
G|--9------10-----9------7-----|
D|--10-----10-----10-----10----|
A|--X------X------X------X-----|
E|--X------X------X------X-----|

[Instrumental]
e|------8--12---12-10-8-|-----8--12---12-10-8---|
B|--10------------------|--8--------------------|
G|----------------------|-----------------------|
D|----------------------|-----------------------|
A|----------------------|-----------------------|
E|----------------------|-----------------------|

[Breakdown]- nothing

[Chorus x6]- listen to song for strumming
e|--8-----(8)----(8)-----x-----|
B|--10-----10-----8------8-----|
G|--9------10-----9------7-----|
D|--10-----10-----10-----10----|
A|--X------X------X------X-----|
E|--X------X------X------X-----|            
Submit corrections


        One Foot lessons Hard to play? Try these video lessons and learn fast One Foot lessons
        
↑ Back to top | Tablatures and chords for acoustic guitar and electric guitar, ukulele, drums are parodies/interpretations of the original songs. You may use it for private study, scholarship, research or language learning purposes only