Home » W » Walk The Moon »

Walk The Moon - Fixin Tabs

Artists:  A B C D E F G H I J K L M N O P Q R S T U V W X Y Z # 

Fixin Tabs

(ver. 1) Click to play this song!
Walk The Moon
Tuning: Standard


Verse 1:
e|------------------------------------------------|
B|---------------------------------14-14-14-------|
G|----------------12-12-12------------------------|     Repeat this through the verse.
D|-------------------------13-13-13---------------|       as guitar 1.
A|-------14-14-14---------------------------------|
E|------------------------------------------------|

e|----------------------------------|-----------------------------------------|
B|--------12p10---------------------|-----------------------------------------|
G|---------------12------9----------|-----Repeat through each verse-----------|
D|------------------12--------------|-----------------------------------------|
A|----------------------------------|-----------------------------------------|
E|----------------------------------|-----------------------------------------|

Chorus:

Just play F in a-form, C in e-form and G in e-form.

F - Don't even tell me where we are going

C - Hands over my eyes (G -) hands over my

F - Don't even tell me where we are going

C - Just Walk G- Just walk by my side

On chorus exit, start playing:

e|------------------------|---------------------------------------------------|
B|----------------333-----|---------------------------------------------------|
G|-------000--------------|---------------------------------------------------|
D|-----------222----------|----x2---------------------------------------------|
A|----333-----------------|---------------------------------------------------|
E|------------------------|---------------------------------------------------|

Verse 2:
e|----------------------------------------------------|----------------------|
B|-------------------------------14-14-14-------------|----------------------|
G|-------------12-12-12-------------------------------|----------------------|
D|----------------------13-13-13----------------------|----------------------|
A|----14-14-14----------------------------------------|----------------------|
E|----------------------------------------------------|----------------------|
                                                              - Guitar 1, alternate between these two
e|---------------------------------------------------------------------------|
B|-------------------------------1414141414----------------------------------|
G|-------------12-12-12------------------------------------------------------|
D|----------------------13-13-13---------------------------------------------|
A|----14-14-14---------------------------------------------------------------|
E|---------------------------------------------------------------------------|

Guitar 2: Same as verse 1.

Chorus: Same as the first time.

Bridge:

e|------------------------|
B|----------------10--12--|
G|-------12-9-12----------|   Repeat through the bridge
D|----10------------------|
A|------------------------|
E|------------------------|            
Submit corrections

↑ Back to top | Tablatures and chords for acoustic guitar and electric guitar, ukulele, drums are parodies/interpretations of the original songs. You may use it for private study, scholarship, research or language learning purposes only