Home » W » Walk The Moon »

Walk The Moon - Avalanche Tabs

Artists:  A B C D E F G H I J K L M N O P Q R S T U V W X Y Z # 

Avalanche Tabs

(ver. 1) Click to play this song!
Walk The Moon
Tuning: Standard

Guitar pt. 1
    d     u     d     u     d     d     d     u     d     u     d  u  d  u
e|--x-----x-----x-----x-----x-----x-----x-----x-----x-----x-----x--x--x--x---|
B|--x-----9-----x-----9-----9-----9-----x-----9-----x-----9-----9--10-10-10--|
G|--x-----9-----x-----9-----9-----9-----x-----9-----x-----9-----9--11-11-11--|
D|--x-----9-----x-----9-----9-----9-----x-----9-----x-----9-----9--9--9--9---|
A|--x-----x-----x-----x-----x-----x-----x-----x-----x-----x-----x--x--x--x---|
E|--x-----x-----x-----x-----x-----x-----x-----x-----x-----x-----x--x--x--x---|

Guitar pt. 2
e|--12-12-12-9-7-9-7---12-12-12-9-7-9-----12-12-12-9-7-9-7-9-7-9-7-----------|
B|--12-12-12-9-7-9-7---12-12-12-9-7-9-9---12-12-12-9-7-9-7-9-7-9-7-9---------|
G|------------------------------------9----------------------------9---------|
D|---------------------------------------------------------------------------|
A|---------------------------------------------------------------------------|
E|---------------------------------------------------------------------------|            
Submit corrections

↑ Back to top | Tablatures and chords for acoustic guitar and electric guitar, ukulele, drums are parodies/interpretations of the original songs. You may use it for private study, scholarship, research or language learning purposes only