Home » W » Walk The Moon »

Walk The Moon - Anna Sun Tabs

Artists:  A B C D E F G H I J K L M N O P Q R S T U V W X Y Z # 

Anna Sun Tabs

(ver. 1) Click to play this song!
Walk The Moon
Capo 3

Tuning:

e|---------------------------------------------------------------------------|
B|---------------------------------------------------------------------------|
G|-----0--------------0------2/4--4------------------------------------------|
D|---2---4-0--------2---4-0--------------------------------------------------|
A|-3---------2----3----------------------------------------------------------|
E|---------------------------------------------------------------------------|
For the slide from 2 to 4, you can also hammer. Whatever is your preference.

For a higher octave one...
e|---0-3-2----------0-3-2----5/7-5-------------------------------------------|
B|-1-------3-0----1-------3--------------------------------------------------|
G|---------------------------------------------------------------------------|
D|---------------------------------------------------------------------------|
A|---------------------------------------------------------------------------|
E|---------------------------------------------------------------------------|
Same thing goes for that one: sliding from 5 to 7, can be interchangeable with a hammer.            
Submit corrections

↑ Back to top | Tablatures and chords for acoustic guitar and electric guitar, ukulele, drums are parodies/interpretations of the original songs. You may use it for private study, scholarship, research or language learning purposes only