Home » W » Walk Off The Earth »

Walk Off The Earth - Gang Of Bass

Artists:  A B C D E F G H I J K L M N O P Q R S T U V W X Y Z # 

Gang Of Bass

(ver. 1) Click to play this song!
Walk Off The Earth
(Rhythm)
walk off the earth - gang of rhythm

intro & verse 1
|----|
|----|
|----|
|----|
 1234 22x

chorus 1
|----------------|----------------|----------------|----------------|
|----------------|----------------|----------------|----------------|
|--------1--11-1-|--------3--33-3-|--------1--11-1-|--------3-x3--3-|
|1--11-----------|1--11-----------|1--11-----------|1--11-----------|
 1   2   3   4    1   2   3   4    1   2   3   4    1   2   3   4    2x

|----------------|----------------|
|----------------|----------------|
|--------1--1--1-|--------3--3--3-|
|1--1--1---------|3--3--3---------|
 1   2   3   4    1   2   3   4    2x

verse 2
|----------------|----------------|----------------|----------------|
|----------------|----------------|----------------|----------------|
|----------------|----------------|------------3-5-|----------------|
|----------------|----------------|-----------3----|3--x3---3--x3-5-|
 1   2   3   4    1   2   3   4    1   2   3   4    1   2   3   4

|----------------|----------------|----------------|----------------|
|----------------|----------------|------------5-7-|----------------|
|------------558-|----------------|5---5--x5--5----|3---3--x3--3--3-|
|6---6---x6-6----|6---6--x6--63-6-|----------------|------------6---|
 1   2   3   4    1   2   3   4    1   2   3   4    1   2   3   4

|----------------|----------------|----------------|----------------|
|----------------|----------------|----------------|----------------|
|5-555-5-3-333-3-|--------3-333-3-|5-555-5-3-333-3-|----------------|
|----------------|6-666-6---------|----------------|6---------------|
 1   2   3   4    1   2   3   4    1   2   3   4    1   2   3   4


chorus 2 = chorus 1
|----------------|----------------|----------------|----------------|
|----------------|----------------|----------------|----------------|
|--------1--11-1-|--------3--33-3-|--------1--11-1-|--------3-x3--3-|
|1--11-----------|1--11-----------|1--11-----------|1--11-----------|
 1   2   3   4    1   2   3   4    1   2   3   4    1   2   3   4    2x

|----------------|----------------|
|----------------|----------------|
|--------1--1--1-|--------3--3--3-|
|1--1--1---------|3--3--3---------|
 1   2   3   4    1   2   3   4    2x

bridge
|----------------|----------------|----------------|----------------|
|----------------|----------------|----------------|----------------|
|----------------|5--x5---5---5-5-|3--x3---3---3-3-|----------------|
|----------------|-----------3----|-----------3----|3--x3---3--13-5-|
 1   2   3   4    1   2   3   4    1   2   3   4    1   2   3   4

|----------------|----------------|
|----------------|----------------|
|3---3---3---3---|3---3---3-------|
|-----------3--3-|----------------|
 1   2   3   4    1   2   3   4

|----|
|----|
|----|
|----|
 1234 9x

chorus 2
|----------------|----------------|----------------|----------------|
|----------------|----------------|----------------|----------------|
|--------1--11-1-|--------3--33-3-|--------1--11-1-|--------3-x3--3-|
|1--11-----------|1--11-----------|1--11-----------|1--11-----------|
 1   2   3   4    1   2   3   4    1   2   3   4    1   2   3   4    2x

|----------------|----------------|
|----------------|----------------|
|--------1--1--1-|--------3--3--3-|
|1--1--1---------|3--3--3---------|
 1   2   3   4    1   2   3   4    4x

outro
|----|
|----|
|----|
|----|
 1234 4x
            
Submit corrections

↑ Back to top | Tablatures and chords for acoustic guitar and electric guitar, ukulele, drums are parodies/interpretations of the original songs. You may use it for private study, scholarship, research or language learning purposes only