» » »

Vulfpeck - Disco Ulysses Bass

Artists:  A B C D E F G H I J K L M N O P Q R S T U V W X Y Z # 

Disco Ulysses Bass

(ver. 1) Click to play this song!
Vulfpeck
 Rating:
4.2/5 (14 votes)

 Disco Ulysses lessons Tabs too difficult? Try these video lessons and learn fast
 
                [0:18]
G|-|---------------|---------------|---------------|---------------|
D|-|---------------|---------------|---------------|---------------|
A|-|---------------|----------2-3-4|----6-5-4~-----|---------------|
E|0|--0-2-3-4---4-3|2---2----------|--4---------2-3|4---4---4-3-2-0|
  + 1 + 2 + 3 + 4 + 1 + 2 + 3 + 4 + 1 + 2 + 3 + 4 + 1 + 2 + 3 + 4 + 

G|---------------|---------------|---------------|---------------|
D|---------------|---------------|---------------|---------------|
A|---------------|----------2-3-4|----6-5-4~-----|--2-----------7|
E|--0-2-3-4---4-3|2---2----------|--4---------4-2|4---4---4-3-2--|
  1 + 2 + 3 + 4 + 1 + 2 + 3 + 4 + 1 + 2 + 3 + 4 + 1 + 2 + 3 + 4 + 

[0:33]
G|--99-----------|--88-----------|--66-----------|---------------|
D|------6--------|------4--------|------2--------|--66--88--99---|
A|------------7-6|------------6-4|---------------|------------6-7|
E|----4---7------|----2---6------|----0---2---3-4|----6---7------|
  1 + 2 + 3 + 4 + 1 + 2 + 3 + 4 + 1 + 2 + 3 + 4 + 1 + 2 + 3 + 4 + 

G|--99-----------|--88-----------|--66-----------|---------------|
D|------6--------|------4--------|------2--------|--66--88--99---|
A|------------7-6|------------6-4|---------------|------------6-7|
E|----4---7------|----2---6------|----0---2---3-4|----6---7------|
  1 + 2 + 3 + 4 + 1 + 2 + 3 + 4 + 1 + 2 + 3 + 4 + 1 + 2 + 3 + 4 + 

G|--99-----------|--88-----------|--66-----------|---------------|
D|------6--------|------4--------|------2--------|--66--88--99---|
A|------------7-6|------------6-4|---------------|------------6-7|
E|----4---7------|----2---6------|----0---2---3-4|----6---7------|
  1 + 2 + 3 + 4 + 1 + 2 + 3 + 4 + 1 + 2 + 3 + 4 + 1 + 2 + 3 + 4 + 

G|--99-----------|--88-----------|--66-----------|---------------|
D|------6--------|------4--------|------2--------|--66-----------|
A|------------7-6|------------6-4|---------------|---------------|
E|----4---7------|----2---6------|----0---2---3-4|----4---4-3-2-0|
  1 + 2 + 3 + 4 + 1 + 2 + 3 + 4 + 1 + 2 + 3 + 4 + 1 + 2 + 3 + 4 + 

[1:01]
G|---------------|---------------|---------------|---------------|
D|---------------|--------4------|---------------|---------------|
A|---------------|----------2-3-4|----6-5-4~-----|---------------|
E|--0-2-3-4---4-3|2---2----------|--4---------4-2|4---4---4-3-2-0|
  1 + 2 + 3 + 4 + 1 + 2 + 3 + 4 + 1 + 2 + 3 + 4 + 1 + 2 + 3 + 4 + 

G|---------------|---------------|---------------|---------------|
D|---------------|---------------|---------------|---------------|
A|---------------|----------2-3-4|----6-5-4~-----|--2------------|
E|--0-2-3-4---4-3|2---2----------|--4---------4-2|4---4---4-3-2-0|
  1 + 2 + 3 + 4 + 1 + 2 + 3 + 4 + 1 + 2 + 3 + 4 + 1 + 2 + 3 + 4 + 

G|---------------|---------------|---------------|---------------|
D|---------------|---------------|---------------|---------------|
A|---------------|----------2-3-4|----6-5-4~-----|---------------|
E|--0-2-3-4---4-3|2---2----------|--4---------4-2|4---4---4-3-2-0|
  1 + 2 + 3 + 4 + 1 + 2 + 3 + 4 + 1 + 2 + 3 + 4 + 1 + 2 + 3 + 4 + 

G|---------------|---------------|---------------|---------------|
D|---------------|--------4------|---------------|---------------|
A|---------------|----------2-3-4|----6-5-4~-----|--------------7|
E|--0-2-3-4---4-3|2---2----------|--4---------4-2|4---4---4-3-2--|
  1 + 2 + 3 + 4 + 1 + 2 + 3 + 4 + 1 + 2 + 3 + 4 + 1 + 2 + 3 + 4 + 

[1:30]
G|--99-----------|--88-----------|--66-----------|---------------|
D|------6--------|------4--------|------2--------|--66--88--99---|
A|------------7-6|------------6-4|---------------|------------6-7|
E|----4---7------|----2---6------|----0---2---3-4|----6---7------|
  1 + 2 + 3 + 4 + 1 + 2 + 3 + 4 + 1 + 2 + 3 + 4 + 1 + 2 + 3 + 4 + 

G|--99-----------|--88-----------|--66-----------|---------------|
D|------6--------|------4--------|------2--------|--66--88--99---|
A|------------7-6|------------6-4|---------------|------------6-7|
E|----4---7------|----2---6------|----0---2---3-4|----6---7------|
  1 + 2 + 3 + 4 + 1 + 2 + 3 + 4 + 1 + 2 + 3 + 4 + 1 + 2 + 3 + 4 + 

G|--99-----------|--88-----------|--66-----------|---------------|
D|------6--------|------4--------|------2--------|--66--88--99---|
A|------------7-6|------------6-4|---------------|------------6-7|
E|----4---7------|----2---6------|----0---2---3-4|----6---7------|
  1 + 2 + 3 + 4 + 1 + 2 + 3 + 4 + 1 + 2 + 3 + 4 + 1 + 2 + 3 + 4 + 

G|--99-----------|--88-----------|--66-----------|---------------|
D|------6--------|------4--------|------2--------|--66-----------|
A|------------7-6|------------6-4|---------------|---------------|
E|----4---7------|----2---6------|----0---2---3-4|----4\--4-3-2-0|
  1 + 2 + 3 + 4 + 1 + 2 + 3 + 4 + 1 + 2 + 3 + 4 + 1 + 2 + 3 + 4 + 

[1:59]
G|---------------|---------------|---------------|---------------|
D|---------------|--------4------|---------------|---------------|
A|---------------|----------2-3-4|----6-5-4~-----|---------------|
E|--0-2-3-4---4-3|2---2----------|--4---------4-2|4---4---4-3-2-0|
  1 + 2 + 3 + 4 + 1 + 2 + 3 + 4 + 1 + 2 + 3 + 4 + 1 + 2 + 3 + 4 + 

G|---------------|---------------|---------------|---------------|
D|---------------|---------------|---------------|---------------|
A|---------------|----------2-3-4|----6-5-4~-----|--2------------|
E|--0-2-3-4---4-3|2---2----------|--4---------4-2|4---4---4-3-2-0|
  1 + 2 + 3 + 4 + 1 + 2 + 3 + 4 + 1 + 2 + 3 + 4 + 1 + 2 + 3 + 4 + 

G|---------------|---------------|---------------|---------------|
D|---------------|---------------|---------------|---------------|
A|---------------|----------2-3-4|----6-5-4~-----|---------------|
E|--0-2-3-4---4-3|2---2----------|--4---------4-2|4---4---4-3-2-0|
  1 + 2 + 3 + 4 + 1 + 2 + 3 + 4 + 1 + 2 + 3 + 4 + 1 + 2 + 3 + 4 + 

G|---------------|---------------|---------------|---------------|
D|---------------|---------------|---------------|---------------|
A|---------------|----------2-3-4|----6-5-4~-----|--2------------|
E|--0-2-3-4---4-3|2---2----------|--4---------4-2|4---4---4-3-2-0|
  1 + 2 + 3 + 4 + 1 + 2 + 3 + 4 + 1 + 2 + 3 + 4 + 1 + 2 + 3 + 4 + 

[2:27]
G|---------------|---------------|---------------|---------------|
D|---------------|---------------|---------------|---------------|
A|---------------|---------------|---------------|---------------|
E|---------------|---------------|---------------|---------------|
  1 + 2 + 3 + 4 + 1 + 2 + 3 + 4 + 1 + 2 + 3 + 4 + 1 + 2 + 3 + 4 + 

G|---------------|---------------|---------------|---------------|
D|---------------|---------------|---------------|---------------|
A|---------------|---------------|---------------|---------------|
E|---------------|---------------|---------------|---------------|
  1 + 2 + 3 + 4 + 1 + 2 + 3 + 4 + 1 + 2 + 3 + 4 + 1 + 2 + 3 + 4 + 

G|---------------|---------------|---------------|---------------|
D|---------------|---------------|---------------|---------------|
A|---------------|---------------|---------------|---------------|
E|---------------|---------------|---------------|---------------|
  1 + 2 + 3 + 4 + 1 + 2 + 3 + 4 + 1 + 2 + 3 + 4 + 1 + 2 + 3 + 4 + 

G|---------------|---------------|---------------|---------------|
D|---------------|---------------|---------------|--66--88--99---|
A|---------------|---------------|---------------|------------6-7|
E|---------------|---------------|------------0/4|----6---7------|
  1 + 2 + 3 + 4 + 1 + 2 + 3 + 4 + 1 + 2 + 3 + 4 + 1 + 2 + 3 + 4 + 

[2:56]
G|--99-----------|--88-----------|--66-----------|---------------|
D|------6--------|------4--------|------2--------|--66--88--99---|
A|------------7-6|------------6-4|---------------|------------6-7|
E|----4---7------|----2---6------|----0---2---3-4|----6---7------|
  1 + 2 + 3 + 4 + 1 + 2 + 3 + 4 + 1 + 2 + 3 + 4 + 1 + 2 + 3 + 4 + 

G|--99-----------|--88-----------|--66-----------|----6---454-----4--------------|
D|------6--------|------4--------|------2--------|------------6-4---6-4----------|
A|------------7-6|------------6-4|---------------|----------------------6-4-6-7--|
E|----4---7------|----2---6------|----0---2---3-4|-------------------------------|
  1 + 2 + 3 + 4 + 1 + 2 + 3 + 4 + 1 + 2 + 3 + 4 + 1 e + a 2 e + a 3 e + a 4 e + a 

G|-------------------|---------------|--66--456------|---------------|
D|-------------------|---------------|---------------|6---5---4------|
A|--77------9-10-11-6|--66--456--6-54|-----------4---|----------432-7|
E|----4-407/---------|----4----46----|-------------/4|---------------|
  1 + 2 + 3 + a  4  + 1 + 2 + 3 + 4 + 1 + 2 + 3 + 4 + 1 + 2 + 3 + 4 + 

G|---------------|--88-----------|--66-----------|---------------|
D|---------------|---------------|---------------|--66--88--99---|
A|--77--------7-6|------456--5--4|------234------|------------6-7|
E|----4-4x7------|---------------|-----------2--4|----6---7------|
  1 + 2 + 3 + 4 + 1 + 2 + 3 + 4 + 1 + 2 + 3 + 4 + 1 + 2 + 3 + 4 + 

G|--99-----------|--8------------|---------------|---------------|
D|------66---9---|------4--------|---------------|----------4-64-|
A|------------7-6|------------654|--4---234------|--1-2-4-6-----7|
E|----4---7------|----2---6------|---------002-04|-0-0-0-0-------|
  1 + 2 + 3 + 4 + 1 + 2 + 3 + 4 + 1 + 2 + 3 + 4 + 1 + 2 + 3 + 4 + 

G|---------------|--88-----------|--66----4h6-454------------|-------------------------------|
D|---------------|---------------|------------------4-4--46--|4------------------------------|
A|--7---------7-6|------456--5--4|----------------------6----|--6---4---2--\4---2--\4-2---7--|
E|----4-4x7------|---------------|---------------------------|------------4-------4----------|
  1 + 2 + 3 + 4 + 1 + 2 + 3 + 4 + 1 + 2 e + a 3 e + a 4 e + a 1 e + a 2 e + a 3 e + a 4 e + a 

G|---------------|---------------|---------------|---------------|
D|---------------|---------------|--------------456---5---4------|
A|------4-7---456|------456--6-54|------234--4---|---4---4-42---7|
E|-4--7--7---7---|----4----46----|---------------|---------------|
  1 + 2 + 3 + 4 + 1 + 2 + 3 + 4 + 1 + 2 + 3 + 4 + 1 + 2 + 3 + 4 + 

G|---------------|------678------|---------------|---------------|
D|---------------|---------------|---------------|---------------|
A|--77--------7-6|--66--------5-4|--4---234------|---------------|
E|----4-447--7-7-|---------------|-----------0204\---------------|
  1 + 2 + 3 + 4 + 1 + 2 + 3 + 4 + 1 + 2 + 3 + 4 + 1 + 2 + 3 + 4 +

            
Submit corrections


        Disco Ulysses lessons Hard to play? Try these video lessons and learn fast Disco Ulysses lessons
        
↑ Back to top | Tablatures and chords for acoustic guitar and electric guitar, ukulele, drums are parodies/interpretations of the original songs. You may use it for private study, scholarship, research or language learning purposes only