Home » V » Vst And Company »

Vst And Company - Ikaw Ang Aking Mahal Tabs

Artists:  A B C D E F G H I J K L M N O P Q R S T U V W X Y Z # 

Ikaw Ang Aking Mahal Tabs

(ver. 1) Click to play this song!
Vst And Company
E|-----------------------------------------------------0-----------4-----------2-----------0--|
B|--------2--2-----5-----------------------------------2-----------5-----------3-----------0--|
G|--------------4-----2-----2-----1--1--1-----------2--2-----------4-----------2-----------1--|
D|--2--2-----------------4-----4-----------4--4--2--------------6-----------4--------------2--|
A|--------0-----4-----2--------------------------0--------0--4--------4--2--------2-----2-----|
E|--------------------------------0--------------------------------------------------0--------|
    A      C#m7 Bm7       E               A C#m7 Bm7 E
Itanong mo sa akin, Kung sino ang aking mahal


E|-----------------------------------------------------0-----------4-----------2-----------0--|
B|--------2--2-----5-----------------------------------2-----------5-----------3-----------0--|
G|--------------4-----2-----2-----1--1--1-----------2--2-----------4-----------2-----------1--|
D|--2--2-----------------4-----4-----------4--4--2--------------6-----------4--------------2--|
A|--------0-----4-----2--------------------------0--------0--4--------4--2--------2-----2-----|
E|--------------------------------0--------------------------------------------------0--------|
   A       C#m7 Bm7    E                 A C#m7 Bm7 E
Itanong mo sa akin, Sagot ko'y di magtatagal


E|-------------------------------------2--|
B|-----2--2--2--2/3--2--0--------------2--|
G|-------------------------4--2--------2--|
D|--2-------------------------------4--4--|
A|-----0-------------------------4--------|
E|-------------------------2--------------|
   A                  F#m
Ikaw lang ang aking mahal


E|--------------------------------------0--|
B|--------------------------------------0--|
G|-----0--2--2--2--2--2--2--4-----1-----1--|
D|--4-----4--------------------2-----2--2--|
A|--------2-----------------------------2--|
E|-----------------------------0--------0--|
             Bm7              E
Ang pag-ibig mo'y aking kailangan

E|-----------------------------------2--|
B|-----5--5--5--5--5--5--7-----------2--|
G|--------------------------2--------2--|
D|--2-----------------------------4--4--|
A|-----4-----------------------4--------|
E|--------------------------2-----------|

    C#m7                 F#m
Pag-ibig na walang hangganan

E|----------------------------------------------|
B|--------------------------------3-------------|
G|-----1--2--2--2--2--2--1-----1--2--1----------|
D|--4-----4-----------------4-----0--2----------|
A|--------2--------------------------2----------|
E|-----------------------------------0----------|
     Bm7                    D-E   A-C#m7-Bm7--|E
Ang aking tunay na nararamdaman

Isa lang ang damdamin
Ikaw ang aking mahal
Maniwala ka sana
Sa akin ay walang iba

Ikaw lang ang aking mahal
Ang pag-ibig mo'y aking kailangan
Pag-ibig na walang hangganan
      Bm7                   D-E  a-C#m7-Bm7-F#m-pause
Ang aking tunay na nararamdaman


E|-----------------------------------------0--|
B|--------------------------------0--------0--|
G|--------2--2--2--2--2--2--2--4-----------1--|
D|-----1--4-----------------------------2--2--|
A|--4-----2--------------------------2-----2--|
E|--------------------------------0-----------|
      Bm7                      E
Ang nais ko sana'y inyong malaman


E|--------------------------------------|
B|--------------------------------------|
G|--1--2--4--4--4--4--4--4--4--6--4--2--|
D|--------6-----------------------------|
A|--------4-----------------------------|
E|--------------------------------2-----|
     C#m7                  F#m
Sa hilaga o sa timog o kanluran


E|-------------------------|
B|-------------------------|
G|-----1--2--2h4--4-----1--|
D|--4-----4----------4--2--|
A|--------2-------------2--|
E|----------------------0--|
          Bm7        E
At kahit sa'n pa man


E|-----------------0--0-----------4-----------2--------0--|
B|--------0--------2--2-----------5-----------3--------0--|
G|--1--2-----2--1--2--2-----------4-----------2--------1--|
D|-----------------2--2--------6-----------4-----------2--|
A|-----------------0--0--0--4--------4--2--------2-----2--|
E|--------------------------------------------------0--0--|
                 A C#m7 Bm7 E
Ang laging isisigaw

E|--------------------|
B|--2--2--2--2--0-----|
G|-----------------2--|
D|-----------------2--|
A|-----------------0--|
E|--------------------|
                  A
Ikaw ang aking mahal...
Ikaw ang aking mahal...
Ikaw ang aking mahal...            
Submit corrections

↑ Back to top | Tablatures and chords for acoustic guitar and electric guitar, ukulele, drums are parodies/interpretations of the original songs. You may use it for private study, scholarship, research or language learning purposes only