Home » V » Volbeat »

Volbeat - Still Counting Bass

Artists:  A B C D E F G H I J K L M N O P Q R S T U V W X Y Z # 

Still Counting Bass

(ver. 1) Click to play this song!
Volbeat
G|-----------------------------------------------------------------|
D|-----------------------------------------------------------------|
A|-5-5-5-5-5-5-5-578-8-8-85-------5-5-5-5-5-5-5-578-8-8-85---------|
E|-------------------------66-65-5-------------------------6-6-5-5-|
B|-----------------------------------------------------------------|

G|------------------------------------------------------------------|
D|------------------------------------------------------------------|
A|-5-5-5-5-5-5-5-578-8-8-85--------5-5-5-5-5-5-5-578-8-8-85---------|
E|-------------------------6-6-5-5--------------------------66-65-5-|
B|------------------------------------------------------------------|

0:49
G|-----------|-------------------------------------------|
D|-----------|o-----------------------------------------o|
A|-----------|-------------------------------------------|
E|-----------|o-----------------------------------------o|
B|-3---6-6-6-|--3333-3353-3333-3563-3333-3353-5653-3432--|

1:12
G|----------------------------------------------------------------------------------|
D|----------------------------------------------------------------------------------|
A|---5----8---------5~5~5~5~5~5~5~578~8~8~85-------5~5~5~5~5~5~5~578~8~8~85---------|
E|-------------6-5--------------------------66~65~5------------------------6~6~5~5~-|
B|-33-------------------------------------------------------------------------------|

1:40
G|-----------------------------------------------------------------|
D|o---------------------------------------------------------------o|
A|-----------------------------------------------------------------|
E|o-666-6-6-666-666-666-6-6-666-666-----------------------------5-o|
B|----------------------------------666-6-6-666-666-333-3-3-333----|

1:59
G|-----------------------------------------------------------------------------------|
D|-----------------------------------------------------------------------------------|
A|---5----8---------5~5~5~5~5~5~5~578~8~8~85--------5~5~5~5~5~5~5~578~8~8~85---------|
E|-------------6-5--------------------------6~6~5~5~------------------------66~65~5~-|
B|-33--------------------------------------------------------------------------------|

2:27
G|-----------------------------------------------------------------|
D|o---------------------------------------------------------------o|
A|-----------------------------------------------------------------|
E|o-666-6-6-666-666-666-6-6-666-666-----------------------------5-o|
B|----------------------------------666-6-6-666-666-333-3-3-333----|

2:46
G|-----------------------------------|-------------------------------|
D|-----------------------------------|-------------------------------|
A|-----------------------------------|-------------------------------|
E|-----------------------------------|-----------------------3-333-5-|
B|-6-333-333-333-333-333-333-333-333-|-333-335-555-556-666-66--------|

2:55
G|-----------------------------------------------------------------|
D|o---------------------------------------------------------------o|
A|-----------------------------------------------------------------|
E|o-666-6-6-666-666-666-6-6-666-666-----------------------------5-o|x3
B|----------------------------------666-6-6-666-666-333-3-3-333----|

3:22
G|------------------------------------------------------------------|
D|------------------------------------------------------------------|
A|------------------------------------------------------------------|
E|-666-6-6-666-666-666-6-6-666-666--------------------------------5-|
B|---------------------------------666-6-6-666-666-333333333333333--|

G|-----------------------------------|-------------------------------|
D|-----------------------------------|-------------------------------|
A|-----------------------------------|-------------------------------|
E|-----------------------------------|-----------------------3-333-5-|
B|-6-333-333-333-333-333-333-333-333-|-333-335-555-556-666-66--------|

G|---------------------------------|---------------------------------|
D|---------------------------------|---------------------------------|
A|---------------------------------|---------------------------------|
E|---------------------------------|---------------------------------|
B|-333-333-333-333-333-333-333-334-|-444-444-444-444-444-444-444-443-|

G|---------------------------------|---------------------------------------|
D|---------------------------------|---------------------------------------|
A|---------------------------------|---------------------------------------|
E|---------------------------------|---------------------------------------|
B|-333-333-333-333-333-333-333-334-|-444-444-444-444-444-4-4-4-4-4-4-4-3~~-|
            
Submit corrections

↑ Back to top | Tablatures and chords for acoustic guitar and electric guitar, ukulele, drums are parodies/interpretations of the original songs. You may use it for private study, scholarship, research or language learning purposes only