Home » V » Vitamin C »

Vitamin C - Put A Smile On Your Face Tabs

Artists:  A B C D E F G H I J K L M N O P Q R S T U V W X Y Z # 

Put A Smile On Your Face Tabs

(ver. 1) Click to play this song!
Vitamin C

        This is a very easy song to play. The only reason I tabbed it out is
because I wanted to give back to Fresh Tabs because I get 90% of my
tabs from them. Anyhow, I felt like I had to give back...even if it is
in a small way. 

Tuning- Standard/ EADGBe

Chords Used: Barre Chords  (Try to play the bottom strings "E,A,D" the
most)

A: 5/7/7/6/5/5
A#:6/8/8/7/6/6
B: 7/9/9/8/7/7

Chorus:

e]---------5-5-5-5-5-5-5---------5-5-5-5-5-5-5------------------------------------------
B]---------5-5-5-5-5-5-5---------5-5-5-5-5-5-5------------------------------------------
G]---------6-6-6-6-6-6-6---------6-6-6-6-6-6-6------------------------------------------
D]---------7-7-7-7-7-7-7---------7-7-7-7-7-7-7------------------------------------------
A]---------7-7-7-7-7-7-7---------7-7-7-7-7-7-7------------------------------------------
E]---------5-5-5-5-5-5-5---------5-5-5-5-5-5-5------------------------------------------

  Put a smile on your face......Make the world a better place....

e]--------5-5-5-5-5-5-5----------6-6-6-7-7-7-7------------------------------------------
B]--------5-5-5-5-5-5-5----------6-6-6-7-7-7-7------------------------------------------
G]--------6-6-6-6-6-6-6----------7-7-7-8-8-8-8------------------------------------------
D]--------7-7-7-7-7-7-7----------8-8-8-9-9-9-9------------------------------------------
A]--------7-7-7-7-7-7-7----------8-8-8-9-9-9-9------------------------------------------
E]--------5-5-5-5-5-5-5----------6-6-6-7-7-7-7------------------------------------------

 Put a smile on your fa--------ce


This is my first tab so if anyone has any questions, comments, or
            
Submit corrections

↑ Back to top | Tablatures and chords for acoustic guitar and electric guitar, ukulele, drums are parodies/interpretations of the original songs. You may use it for private study, scholarship, research or language learning purposes only