» » »

Violent Soho - Slow Wave Tabs

Artists:  A B C D E F G H I J K L M N O P Q R S T U V W X Y Z # 

Slow Wave Tabs

(ver. 1) Click to play this song!
Violent Soho
 Rating:
4.3/5 (25 votes)

 Slow Wave  lessons Tabs too difficult? Try these video lessons and learn fast
 
                [Intro]

Guitar 1
e|--------------------14----|
B|-----15----------------15-|
G|--------14----14----------|
D|-12--------12----12-------| x12
A|--------------------------|
D|--------------------------|

Guitar 2
e|------------------------|------------------------|-----------------|-----------------|
B|------------------------|------------------------|-----------------|-----------------|
G|-6-6b-6b-6b-6b-6b-6b-6b-|-6-6b-6b-6b-6b-6b-6b-6b-|-----------------|-----------------| 
D|------------------------|------------------------|-4-4-4-4-4-4-4-4-|-5-5-5-5-5-5-5-5-| x2
A|-4-4b-4b-4b-4b-4b-4b-4b-|-4-4b-4b-4b-4b-4b-4b-4b-|-4-4-4-4-4-4-4-4-|-5-5-5-5-5-5-5-5-|
D|------------------------|------------------------|-4-4-4-4-4-4-4-4-|-5-5-5-5-5-5-5-5-|

e|------------------------|------------------------|-------------------------|-------------------------|
B|------------------------|------------------------|-------------------------|-------------------------|
G|-6-6b-6b-6b-6b-6b-6b-6b-|-6-6b-6b-6b-6b-6b-6b-6b-|-11-11-11-11-11-11-11-11-|-14-14-14-14-13-13-13-13-|
D|------------------------|------------------------|-------------------------|-------------------------| x2
A|-4-4b-4b-4b-4b-4b-4b-4b-|-4-4b-4b-4b-4b-4b-4b-4b-|-9--9--9--9--9--9--9--9--|-12-12-12-12-11-11-11-11-| 
D|------------------------|------------------------|-------------------------|-------------------------|


[Verse]

e|----------|----------|-----------|
B|----------|----------|-----------|
G|----------|----------|-----------|
D|-------0~-|-------0~-|--------0~-| x4
A|----0-----|----5-----|-----9-----|
D|-0--------|-5--------|-/9--------|


[Chorus]

e|------------------------|------------------------|-----------------|-----------------|
B|------------------------|------------------------|-----------------|-----------------|
G|-6-6b-6b-6b-6b-6b-6b-6b-|-6-6b-6b-6b-6b-6b-6b-6b-|-----------------|-----------------| 
D|------------------------|------------------------|-4-4-4-4-4-4-4-4-|-5-5-5-5-5-5-5-5-| x2
A|-4-4b-4b-4b-4b-4b-4b-4b-|-4-4b-4b-4b-4b-4b-4b-4b-|-4-4-4-4-4-4-4-4-|-5-5-5-5-5-5-5-5-|
D|------------------------|------------------------|-4-4-4-4-4-4-4-4-|-5-5-5-5-5-5-5-5-|

e|-----------------|-----------------|-----------------|-----------------|
B|-----------------|-----------------|-----------------|-----------------|
G|-----------------|-4-4-4-4-4-4-4-4-|-----------------|-----------------|
D|-0-0-0-0-0-0-0-0-|-4-4-4-4-4-4-4-4-|-2-2-2-2-2-2-2-2-|-5-5-5-5-5-5-5-5-| x3
A|-0-0-0-0-0-0-0-0-|-2-2-2-2-2-2-2-2-|-2-2-2-2-2-2-2-2-|-5-5-5-5-5-5-5-5-|
D|-0-0-0-0-0-0-0-0-|-----------------|-2-2-2-2-2-2-2-2-|-5-5-5-5-5-5-5-5-|

e|-----------------|-----------------|
B|-----------------|-----------------|
G|-----------------|-----------------|
D|-2-2-2-2-2-2-2-2-|-5-5-5-5-5-5-5-5-| x2
A|-2-2-2-2-2-2-2-2-|-5-5-5-5-5-5-5-5-|
D|-2-2-2-2-2-2-2-2-|-5-5-5-5-5-5-5-5-|


[Verse]

e|----------|----------|-----------|
B|----------|----------|-----------|
G|----------|----------|-----------|
D|-------0~-|-------0~-|--------0~-| x4
A|----0-----|----5-----|-----9-----|
D|-0--------|-5--------|-/9--------|


[Chorus]

e|------------------------|------------------------|-----------------|-----------------|
B|------------------------|------------------------|-----------------|-----------------|
G|-6-6b-6b-6b-6b-6b-6b-6b-|-6-6b-6b-6b-6b-6b-6b-6b-|-----------------|-----------------| 
D|------------------------|------------------------|-4-4-4-4-4-4-4-4-|-5-5-5-5-5-5-5-5-| x2
A|-4-4b-4b-4b-4b-4b-4b-4b-|-4-4b-4b-4b-4b-4b-4b-4b-|-4-4-4-4-4-4-4-4-|-5-5-5-5-5-5-5-5-|
D|------------------------|------------------------|-4-4-4-4-4-4-4-4-|-5-5-5-5-5-5-5-5-|

e|-----------------|-----------------|-----------------|-----------------|
B|-----------------|-----------------|-----------------|-----------------|
G|-----------------|-4-4-4-4-4-4-4-4-|-----------------|-----------------|
D|-0-0-0-0-0-0-0-0-|-4-4-4-4-4-4-4-4-|-2-2-2-2-2-2-2-2-|-5-5-5-5-5-5-5-5-| x3
A|-0-0-0-0-0-0-0-0-|-2-2-2-2-2-2-2-2-|-2-2-2-2-2-2-2-2-|-5-5-5-5-5-5-5-5-|
D|-0-0-0-0-0-0-0-0-|-----------------|-2-2-2-2-2-2-2-2-|-5-5-5-5-5-5-5-5-|

e|-----------------|-----------------|
B|-----------------|-----------------|
G|-----------------|-----------------|
D|-2-2-2-2-2-2-2-2-|-5-5-5-5-5-5-5-5-| x2
A|-2-2-2-2-2-2-2-2-|-5-5-5-5-5-5-5-5-|
D|-2-2-2-2-2-2-2-2-|-5-5-5-5-5-5-5-5-|


[Bridge / Solo]

Guitar 1
e|-----------------|-----------------|-----------------|-----------------|
B|-----------------|-----------------|-----------------|-----------------|
G|-----------------|-----------------|-----------------|-----------------|
D|-7-7-7-7-7-7-7-7-|-7-7-7-7-7-7-7-7-|-4-4-4-4-4-4-4-4-|-9-9-9-9-9-9-9-9-| x2
A|-5-5-5-5-5-5-5-5-|-5-5-5-5-5-5-5-5-|-2-2-2-2-2-2-2-2-|-7-7-7-7-7-7-7-7-| 
D|-----------------|-----------------|-----------------|-----------------|

Guitar 2
e|-------------------|-------------------|----------------|
B|-------------------|-------------------|----------------|
G|-11-------11-------|-11-------11-------|-------11-------|
D|----14-12----14-12-|----14-12----14-12-|-12-14----14-12-|
A|-------------------|-------------------|----------------|
D|-------------------|-------------------|----------------|

Guitar 2 continued
e|-------------------|-------------------|-------------------------|
B|-------------------|-------------------|-------------------------|
G|-11-------11-------|-11-------11-------|-14-14-14-14-13-13-13-13-|
D|----14-12----14-12-|----14-12----14-12-|-------------------------| x2
A|-------------------|-------------------|-12-12-12-12-11-11-11-11-| 
D|-------------------|-------------------|-------------------------|


[Chorus]

Guitar 1
e|------------------------|------------------------|-----------------|-----------------|
B|------------------------|------------------------|-----------------|-----------------|
G|-6-6b-6b-6b-6b-6b-6b-6b-|-6-6b-6b-6b-6b-6b-6b-6b-|-----------------|-----------------| 
D|------------------------|------------------------|-4-4-4-4-4-4-4-4-|-5-5-5-5-5-5-5-5-| Repeat Until End
A|-4-4b-4b-4b-4b-4b-4b-4b-|-4-4b-4b-4b-4b-4b-4b-4b-|-4-4-4-4-4-4-4-4-|-5-5-5-5-5-5-5-5-|
D|------------------------|------------------------|-4-4-4-4-4-4-4-4-|-5-5-5-5-5-5-5-5-|

Guitar 2
e|--------------------14----|
B|-----15----------------15-|
G|--------14----14----------|
D|-12--------12----12-------| Repeat Until End
A|--------------------------|
D|--------------------------|
            
Submit corrections


        Slow Wave  lessons Hard to play? Try these video lessons and learn fast Slow Wave  lessons
        
↑ Back to top | Tablatures and chords for acoustic guitar and electric guitar, ukulele, drums are parodies/interpretations of the original songs. You may use it for private study, scholarship, research or language learning purposes only