» » »

Violent Soho - Neighbour Neighbour Tabs

Artists:  A B C D E F G H I J K L M N O P Q R S T U V W X Y Z # 

Neighbour Neighbour Tabs

(ver. 1) Click to play this song!
Violent Soho
 Rating:
3.6/5 (20 votes)

 Neighbour Neighbour  lessons Tabs too difficult? Try these video lessons and learn fast
 
                Intro 
 | Guitar 1 (Clean)
E|-------------------------------8------|
B|------5---------------9------10-10----|
G|--------------------------------------|   x6
D|----5---------------9------10---------|    
A|--3---------------7------8------------|
D|--------------------------------------|

Pre-Chorus
 | Bass 
G|---------------------------------------------------------------------------------------|
D|---------------------------------------------------------------------------------------|  x4
A|--3-3-3-3-3-3-3-7-7-7-7-7-7-7-7-7---------------5-5-5-5-5-5-5-5-5----------------------|
D|----------------------------------7-7-7-7-7-7-7----------------------------------------|

Chorus
 | Guitar 1 
E|-------------------------------------------------------------------------------|
B|-------------------------------------------------------------------------------|
G|-----------------------------------5-5-5-5-5-5-5-5-----------------------------| 
D|---3-3-3-3-3-3-3-3-3-3-3-3-3-3-3-3-5-5-5-5-5-5-5-5-5-5-5-5-5-5-5-5-------------|    
A|---3-3-3-3-3-3-3-3-3-3-3-3-3-3-3-3-3-3-3-3-3-3-3-3-5-5-5-5-5-5-5-5-------------|
D|---3-3-3-3-3-3-3-3-3-3-3-3-3-3-3-3-----------------5-5-5-5-5-5-5-5-------------|
 |                                                                                   
 | Guitar 2 
E|-------------------------------------------------------------------------------|
B|-------------------------------------------------------------------------------|
G|-----------------------------------5-5-5-5-5-5-5-5-----------------------------|   x2
D|---3-3-3-3-3-3-3-3-3-3-3-3-3-3-3-3-5-5-5-5-5-5-5-5-5-5-5-5-5-5-5-5-------------|    
A|---3-3-3-3-3-3-3-3-3-3-3-3-3-3-3-3-3-3-3-3-3-3-3-3-5-5-5-5-5-5-5-5-------------|
D|---3-3-3-3-3-3-3-3-3-3-3-3-3-3-3-3-----------------5-5-5-5-5-5-5-5-------------|
 |
 | Bass 
G|-------------------------------------------------------------------------------|
D|-------------------------------------------------------------------------------|
A|-----------------------------------3-3-3-3-3-3-3-3-----------------------------|
D|---3-3-3-3-3-3-3-3-3-3-3-3-3-3-3-3-----------------5-5-5-5-5-5-5-5-------------|

 | Guitar 1 
E|---------------------------------------------------------------------------------------|
B|---------------------------------------------------------------------------------------|
G|-----------------5-5-5-5-5-5-5-5-5-----------------------------------------------------|
D|---3-3-3-3-3-3-3-5-5-5-5-5-5-5-5-5-0-0-0-0-0-0-0-7-7-7-7-7-7-7-7-7-3-3-3-3-3-3-3-3-----|    
A|---3-3-3-3-3-3-3-3-3-3-3-3-3-3-3-3-0-0-0-0-0-0-0-7-7-7-7-7-7-7-7-7-3-3-3-3-3-3-3-3-----|
D|---3-3-3-3-3-3-3-------------------0-0-0-0-0-0-0-7-7-7-7-7-7-7-7-7-3-3-3-3-3-3-3-3-----|
 |                                                                                   
 | Guitar 2
E|---------------------------------------------------------------------------------------|
B|---------------------------------------------------------------------------------------|
G|-----------------5-5-5-5-5-5-5-5-5-7-7-7-7-7-7-7---------------------------------------|
D|---3-3-3-3-3-3-3-5-5-5-5-5-5-5-5-5-7-7-7-7-7-7-7-7-7-7-7-7-7-7-7-7-3-3-3-3-3-3-3-3-----|    
A|---3-3-3-3-3-3-3-3-3-3-3-3-3-3-3-3-5-5-5-5-5-5-5-7-7-7-7-7-7-7-7-7-3-3-3-3-3-3-3-3-----|
D|---3-3-3-3-3-3-3---------------------------------7-7-7-7-7-7-7-7-7-3-3-3-3-3-3-3-3-----|
 |
 | Bass 
G|---------------------------------------------------------------------------------------|
D|---------------------------------------------------------------------------------------|
A|-----------------3-3-3-3-3-3-3-3-3-5-5-5-5-5-5-5---------------------------------------|
D|---3-3-3-3-3-3-3---------------------------------7-7-7-7-7-7-7-7-7-3-3-3-3-3-3-3-3-----|

Post-Chorus
 | Guitar 1
E|--12--10---12b----12--10--12--8--|--12--10---12b-------12--10---12/20--|
B|---------------10----------------|----------------10-------------------|
G|---------------------------------|-------------------------------------|
D|---------------------------------|-------------------------------------|
A|---------------------------------|-------------------------------------|
D|---------------------------------|-------------------------------------|
 |                                                                                   
 | Guitar 2 
E|---------------------------------|-------------------------------------|
B|--5---3----5b-----5---3---5---1--|--5---3----5b--------5---3----5/13---|
G|---------------2-----------------|----------------2--------------------|
D|---------------------------------|-------------------------------------|
A|---------------------------------|-------------------------------------|
D|---------------------------------|-------------------------------------|
 |
 | Bass 
G|---------------------------------------------------------------------------------------|
D|---------------------------------------------------------------------------------------|
A|--3-3-3-3-3-3-3-7-7-7-7-7-7-7-7-7---------------5-5-5-5-5-5-5-5-5----------------------| x2
D|----------------------------------7-7-7-7-7-7-7----------------------------------------|

Verse
 | Bass 
G|---------------------------------------------------------------------------------------|
D|---------------------------------------------------------------------------------------| x4
A|--3-3-3-3-3-3-3-7-7-7-7-7-7-7-7-7---------------5-5-5-5-5-5-5-5-5----------------------|
D|----------------------------------7-7-7-7-7-7-7----------------------------------------|


Chorus


Post Chorus 2
 | Guitar 1
E|----8---8---8---8---8---8---8---8-|---8---8---8---8---8---8---8---8-|
B|--10--10--10--10--10--10--10--10--|-9---9---9---9---9---9---9---9---|    
G|----------------------------------|---------------------------------|  x2
D|----------------------------------|---------------------------------|
A|----------------------------------|---------------------------------|
D|----------------------------------|---------------------------------|


 | Guitar 1
E|----8---8---8---8---8---8---8---8-|---8---8---8---8---8---8---8---8-|
B|--10--10--10--10--10--10--10--10--|-9---9---9---9---9---9---9---9---|    
G|----------------------------------|---------------------------------|  x2
D|----------------------------------|---------------------------------|
A|----------------------------------|---------------------------------|
D|----------------------------------|---------------------------------|
 |
 | Bass 
G|----------------------------------|---------------------------------|
D|----------------------------------|---------------------------------|
A|--3-3-3-3-3-3-3-3-3-3-3-3-3-3-3-3-|-3-3-3-3-3-3-3-3-3-3-3-3-3-3-3-3-|
D|----------------------------------|---------------------------------|

Solo (Guitar 2 and Bass playing Chorus)
 | Guitar 1
E|-------------------------------------------------------------------------------|
B|---12~~~~b-12~~~~b-12~~~~b-12~~~~b-12~~~~b-12~~~~b-12~~~~b-12~~~~b-------------|
G|-------------------------------------------------------------------------------|
D|-------------------------------------------------------------------------------|    
A|-------------------------------------------------------------------------------|
D|-------------------------------------------------------------------------------|

 | Guitar 1
E|-------------------------------------------------------------------------------|
B|---12~~~~b-12----7-----5-----------12~~~~b-12----5-----7--------5--------------|
G|-------------------------------------------------------------------------------|
D|-------------------------------------------------------------------------------|    
A|-------------------------------------------------------------------------------|
D|-------------------------------------------------------------------------------|

Last Chorus
 | Guitar 1
E|--------5--7--5-------5---7---5--------5--7--5-------5---7---5-----------------|
B|----5------------5-----------------5------------5------------------------------|
G|-------------------------------------------------------------------------------|
D|-------------------------------------------------------------------------------|   
A|-------------------------------------------------------------------------------|
D|-------------------------------------------------------------------------------|
 |                                                                                   
 | Guitar 2 
E|-------------------------------------------------------------------------------|
B|-------------------------------------------------------------------------------|
G|-----------------------------------5-5-5-5-5-5-5-5-----------------------------|   
D|---3-3-3-3-3-3-3-3-3-3-3-3-3-3-3-3-5-5-5-5-5-5-5-5-5-5-5-5-5-5-5-5-------------|    
A|---3-3-3-3-3-3-3-3-3-3-3-3-3-3-3-3-3-3-3-3-3-3-3-3-5-5-5-5-5-5-5-5-------------|
D|---3-3-3-3-3-3-3-3-3-3-3-3-3-3-3-3-----------------5-5-5-5-5-5-5-5-------------|
 |
 | Bass 
G|-------------------------------------------------------------------------------|
D|-------------------------------------------------------------------------------|
A|-----------------------------------3-3-3-3-3-3-3-3-----------------------------|
D|---3-3-3-3-3-3-3-3-3-3-3-3-3-3-3-3-----------------5-5-5-5-5-5-5-5-------------|

 | Guitar 1
E|--/12~~~~b-12----7-----5-----------12~~~~b-12----5-----7--------5--------------|
B|-------------------------------------------------------------------------------|
G|-------------------------------------------------------------------------------|
D|-------------------------------------------------------------------------------|   
A|-------------------------------------------------------------------------------|
D|-------------------------------------------------------------------------------|
 |                                                                                   
 | Guitar 2 
E|-------------------------------------------------------------------------------|
B|-------------------------------------------------------------------------------|
G|-----------------------------------5-5-5-5-5-5-5-5-----------------------------|  
D|---3-3-3-3-3-3-3-3-3-3-3-3-3-3-3-3-5-5-5-5-5-5-5-5-5-5-5-5-5-5-5-5-------------|    
A|---3-3-3-3-3-3-3-3-3-3-3-3-3-3-3-3-3-3-3-3-3-3-3-3-5-5-5-5-5-5-5-5-------------|
D|---3-3-3-3-3-3-3-3-3-3-3-3-3-3-3-3-----------------5-5-5-5-5-5-5-5-------------|
 |
 | Bass 
G|-------------------------------------------------------------------------------|
D|-------------------------------------------------------------------------------|
A|-----------------------------------3-3-3-3-3-3-3-3-----------------------------|
D|---3-3-3-3-3-3-3-3-3-3-3-3-3-3-3-3-----------------5-5-5-5-5-5-5-5-------------|

Outro
 | Guitar 1
E|-----------------------------------------------------------------------|
B|---5b------5b------5b------5b------5b------5b------5b------5b----------|
G|-----------------------------------------------------------------------|
D|-----------------------------------------------------------------------|   
A|-----------------------------------------------------------------------|
D|-----------------------------------------------------------------------|
 |                                                                                   
 | Guitar 2
E|-----------------------------------------------------------------------|
B|-----------------------------------------------------------------------|
G|-----------------5-5-5-5-5-5-5-5-5-7-7-7-7-7-7-7-----------------------|   x4
D|---3-3-3-3-3-3-3-5-5-5-5-5-5-5-5-5-7-7-7-7-7-7-7-7-7-7-7-7-7-7-7-7-----|    
A|---3-3-3-3-3-3-3-3-3-3-3-3-3-3-3-3-5-5-5-5-5-5-5-7-7-7-7-7-7-7-7-7-----|
D|---3-3-3-3-3-3-3-------------------0-0-0-0-0-0-0-7-7-7-7-7-7-7-7-7-----|
 |
 | Bass 
G|-----------------------------------------------------------------------|
D|-----------------------------------------------------------------------|
A|-----------------3-3-3-3-3-3-3-3-3-------------------------------------|
D|---3-3-3-3-3-3-3-------------------0-0-0-0-0-0-0-7-7-7-7-7-7-7-7-7-----|


| Guitar 1
E|-----------------------------------------------------------------------|
B|---5b~~~~~~5b~~~~~~5b~~~~~~5b~~~~~~5b~~~~~~5b~~~~~~5b~~~~~~5b~~~~~~~~--|
G|-----------------------------------------------------------------------|
D|-----------------------------------------------------------------------|   
A|-----------------------------------------------------------------------|
D|-----------------------------------------------------------------------|
 |                                                                                   
 | Guitar 2
E|-----------------------------------------------------------------------|
B|-----------------------------------------------------------------------|
G|-----------------------------------------------------------------------| 
D|---3~~~~~~~~~~~~~~~~~~~~~~~~~~~~~~~~~~~~~~~~~~~~~~~~~~~~~~~~-----------|    
A|---3~~~~~~~~~~~~~~~~~~~~~~~~~~~~~~~~~~~~~~~~~~~~~~~~~~~~~~~~-----------|
D|---3~~~~~~~~~~~~~~~~~~~~~~~~~~~~~~~~~~~~~~~~~~~~~~~~~~~~~~~~-----------|
 |
 | Bass 
G|-----------------------------------------------------------------------|
D|-----------------------------------------------------------------------|
A|-----------------------------------------------------------------------|
D|---3~~~~~~~~~~~~~~~~~~~~~~~~~~~~~~~~~~~~~~~~~~~~~~~~~~~~~~~~-----------|

            
Submit corrections


        Neighbour Neighbour  lessons Hard to play? Try these video lessons and learn fast Neighbour Neighbour  lessons
        
↑ Back to top | Tablatures and chords for acoustic guitar and electric guitar, ukulele, drums are parodies/interpretations of the original songs. You may use it for private study, scholarship, research or language learning purposes only