» » »

Violent Soho - Gold Coast Tabs

Artists:  A B C D E F G H I J K L M N O P Q R S T U V W X Y Z # 

Gold Coast Tabs

(ver. 1) Click to play this song!
Violent Soho
 Rating:
4.3/5 (16 votes)

 Gold Coast lessons Tabs too difficult? Try these video lessons and learn fast
 
                [Intro/Verse] 2x

PM-----------------------------------------------------------------------
e|-----------------------------------------------------------------------|
B|-----------------------------------------------------------------------|
G|-----------------------------------------------------------------------|
D|-------------------------------------------------------5-5-5-5-5-5-5-5-|
A|-5-5-5-5-5-5-5-5---1-1-1-1-1-1-1-1---0-0-0-0-0-0-0-0---3-3-3-3-3-3-3-3-|
D|-5-5-5-5-5-5-5-5---1-1-1-1-1-1-1-1---0-0-0-0-0-0-0-0-------------------|


[Pre-Chorus] 2x

PM------   ---   ---------   ---   ---------   ---   ---------   ---   --
e|-----------------------------------------------------------------------|
B|-----------------------------------------------------------------------|
G|-------------------------------------------3-----3-----------5-----5---|
D|-------5-----5-----------0-----0-----3-3-3-3-3-3-3-3---5-5-5-5-5-5-5-5-|
A|-5-5-5-5-5-5-5-5---0-0-0-0-0-0-0-0---1-1-1-1-1-1-1-1---3-3-3-3-3-3-3-3-|
D|-5-5-5-5-5-5-5-5---0-0-0-0-0-0-0-0-------------------------------------|


[Chorus] 2x

Guitar 1:
e|-----------------------------------------------------------------------|
B|-----------------------------------------------------------------------|
G|-----------------------------------------------------------------------|
D|---------------------------3--3--3-3-3-5--5--5-5-5-5-------------------|
A|-5--5--5-5-5-0--0--0-0-0-0-1--1--1-1-1-3--3--3-3-3-3-------------------|
D|-5--5--5-5-5-0--0--0-0-0-0---------------------------------------------|


Guitar 2:
e|-----------------------------------------------------------------------|
B|-----------------------------------------------------------------------|
G|-12- 12--12-12-12-7--7--7-7-7-7-12--12--12-12-12-7--7--7-7-7-7---------|
D|-----------------------------------------------------------------------|
A|-10--10--10-10-10-5--5--5-5-5-5-10--10--10-10-10-5--5--5-5-5-5---------|
D|-----------------------------------------------------------------------|


[Verse] 4x

Guitar 1:
PM-----------------------------------------------------------------------
e|-----------------------------------------------------------------------|
B|-----------------------------------------------------------------------|
G|-----------------------------------------------------------------------|
D|-------------------------------------------------------5-5-5-5-5-5-5-5-|
A|-5-5-5-5-5-5-5-5---1-1-1-1-1-1-1-1---0-0-0-0-0-0-0-0---3-3-3-3-3-3-3-3-|
D|-5-5-5-5-5-5-5-5---1-1-1-1-1-1-1-1---0-0-0-0-0-0-0-0-------------------|


Guitar 2: (2x starting on the fourth bar)
e|-----------------------------------------------------------------------|
B|----8~----8~----8~----8~-----------------------------------------------|
G|-----------------------------------------------------------------------|
D|-5-----5-----5-----5---------------------------------------------------|
A|-----------------------------------------------------------------------|
D|-----------------------------------------------------------------------|


[Pre-Chorus] 2x

PM------   ---   ---------   ---   ----------   ---   ---------   ---   --
e|------------------------------------------------------------------------|
B|------------------------------------------------------------------------|
G|--------------------------------------------3-----3-----------5-----5---|
D|-------5-----5-----------0-----0------3-3-3-3-3-3-3-3---5-5-5-5-5-5-5-5-|
A|-5-5-5-5-5-5-5-5---0-0-0-0-0-0-0-0----1-1-1-1-1-1-1-1---3-3-3-3-3-3-3-3-|
D|-5-5-5-5-5-5-5-5---0-0-0-0-0-0-0-0--------------------------------------|


[Chorus] 4x

Guitar 1:
e|------------------------------------------------------------------------|
B|------------------------------------------------------------------------|
G|------------------------------------------------------------------------|
D|---------------------------3--3--3-3-3-5--5--5-5-5-5--------------------|
A|-5--5--5-5-5-0--0--0-0-0-0-1--1--1-1-1-3--3--3-3-3-3--------------------|
D|-5--5--5-5-5-0--0--0-0-0-0----------------------------------------------|


Guitar 2:
e|------------------------------------------------------------------------|
B|------------------------------------------------------------------------|
G|-12- 12--12-12-12-7--7--7-7-7-7-12--12--12-12-12-7--7--7-7-7-7----------|
D|------------------------------------------------------------------------|
A|-10--10--10-10-10-5--5--5-5-5-5-10--10--10-10-10-5--5--5-5-5-5----------|
D|------------------------------------------------------------------------|


[Bridge] (3x without distortion)

Guitar 1:
e|------------------------------------------------------------------------| 6x
B|------------------------------------------------------------------------|
G|------------------------------------------------------------------------|
D|-------------------------------------------------------5-5-5-5-5-5-5-5--|
A|-5-5-5-5-5-5-5-5-5-5-5-5-5-5-5-5----1-1-1-1-1-1-1-1----3-3-3-3-3-3-3-3--|
D|-5-5-5-5-5-5-5-5-5-5-5-5-5-5-5-5----1-1-1-1-1-1-1-1---------------------|

e|------------------------------------------------------------------------| 1x
B|------------------------------------------------------------------------|
G|------------------------------------------------------------------------|
D|-------------------------------------------------------5-5-5-5-5--------|
A|-5-5-5-5-5-5-5-5-5-5-5-5-5-5-5-5----1-1-1-1-1-1-1-1----3-3-3-3-3--------|
D|-5-5-5-5-5-5-5-5-5-5-5-5-5-5-5-5----1-1-1-1-1-1-1-1---------------------|

(without distortion)
e|-----------------------------------------------------------------------|
B|-----------------------------------------------------------------------|
G|-----------------------------------------------------------------------|
D|---------------------------3--3--3-3-3-5--5--5-5-5-5-------------------|
A|-5--5--5-5-5-0--0--0-0-0-0-1--1--1-1-1-3--3--3-3-3-3-------------------|
D|-5--5--5-5-5-0--0--0-0-0-0---------------------------------------------|


Guitar 2: (Starting on the second bar)
PM----------------------------------------------------------------
e|------------------------------------------------------------------------| 2x
B|------------------------------------------------------------------------|
G|-7-7-7-7-7-7-7-7-7-7-7-7-7-7-7-7-7-7-7-7-7-7-7-7-8-8-8-8-8-8-8-8--------|
D|------------------------------------------------------------------------|
A|------------------------------------------------------------------------|
D|------------------------------------------------------------------------|

e|-------------------------------------------------------------------------| 2x
B|-------------------------------------------------------------------------|
G|-7-7-7-7-7-7-7-7-7-7-7-7-7-7-7-7-9-9-9-9-9-9-9-9-10-10-10-10-10-10-10-10-|
D|-------------------------------------------------------------------------|
A|-5-5-5-5-5-5-5-5-5-5-5-5-5-5-5-5-7-7-7-7-7-7-7-7-8--8--8--8--8--8--8--8--|
D|-------------------------------------------------------------------------|

e|------------------------------------------------------------------------|
B|------------------------------------------------------------------------|
G|-19---------------------------------------------------------------------|
D|------------------------------------------------------------------------|
A|-17--32x----------------------------------------------------------------|
D|------------------------------------------------------------------------|

e|------------------------------------------------------------------------|
B|------------------------------------------------------------------------|
G|-19---------------------------------------------------------------------|
D|------------------------------------------------------------------------|
A|-17--29x----------------------------------------------------------------|
D|------------------------------------------------------------------------|


[Chorus] 2x

Guitar 1:
e|-----------------------------------------------------------------------|
B|-----------------------------------------------------------------------|
G|-----------------------------------------------------------------------|
D|---------------------------3--3--3-3-3-5--5--5-5-5-5-------------------|
A|-5--5--5-5-5-0--0--0-0-0-0-1--1--1-1-1-3--3--3-3-3-3-------------------|
D|-5--5--5-5-5-0--0--0-0-0-0---------------------------------------------|


Guitar 2:
e|-----------------------------------------------------------------------|
B|-----------------------------------------------------------------------|
G|-12- 12--12-12-12-7--7--7-7-7-7-12--12--12-12-12-7--7--7-7-7-7---------|
D|-----------------------------------------------------------------------|
A|-10--10--10-10-10-5--5--5-5-5-5-10--10--10-10-10-5--5--5-5-5-5---------|
D|-----------------------------------------------------------------------|


[Ending (Bridge)]

Guitar 1:
e|------------------------------------------------------------------------| 5x
B|------------------------------------------------------------------------|
G|------------------------------------------------------------------------|
D|-------------------------------------------------------5-5-5-5-5-5-5-5--|
A|-5-5-5-5-5-5-5-5-5-5-5-5-5-5-5-5----1-1-1-1-1-1-1-1----3-3-3-3-3-3-3-3--|
D|-5-5-5-5-5-5-5-5-5-5-5-5-5-5-5-5----1-1-1-1-1-1-1-1---------------------|

e|------------------------------------------------------------------------|
B|------------------------------------------------------------------------|
G|------------------------------------------------------------------------|
D|------------------------------------------------------------------------|
A|-5----------------------------------------------------------------------|
D|-5----------------------------------------------------------------------|

Guitar 2:
e|-------------------------------------------------------------------------| 2x
B|-------------------------------------------------------------------------|
G|-7-7-7-7-7-7-7-7-7-7-7-7-7-7-7-7-9-9-9-9-9-9-9-9-10-10-10-10-10-10-10-10-|
D|-------------------------------------------------------------------------|
A|-5-5-5-5-5-5-5-5-5-5-5-5-5-5-5-5-7-7-7-7-7-7-7-7-8--8--8--8--8--8--8--8--|
D|-------------------------------------------------------------------------|

e|-------------------------------------------------------------------------| 3x
B|-8~-8~-8~-8~-8~-8~-8~-8~-8~-8~-8~-8~-8~-8~-8~-8~-------------------------|
G|-------------------------------------------------------------------------|
D|-------------------------------------------------------------------------|
A|-------------------------------------------------------------------------|
D|-------------------------------------------------------------------------|

            
Submit corrections


        Gold Coast lessons Hard to play? Try these video lessons and learn fast Gold Coast lessons
        
↑ Back to top | Tablatures and chords for acoustic guitar and electric guitar, ukulele, drums are parodies/interpretations of the original songs. You may use it for private study, scholarship, research or language learning purposes only