Home » V » Violent Femmes »

Violent Femmes - Good Feeling Bass

Artists:  A B C D E F G H I J K L M N O P Q R S T U V W X Y Z # 

Good Feeling Bass

(ver. 1) Click to play this song!
Violent Femmes


\ - slide up
/ - slide down

G|----------------------------------------------|
D|----------------------------------------------|
A|-6-6\86-1-1-31-----------------5--------------|
E|--------------34-4-681011-11/6----------------|

G|----------------------------------------------|
D|----------------------------------------------|
A|-6-6-865-1-1-31-----------------5-------------|
E|---------------34-4-681011-11/6---------------|

G|----------------------------------------------|
D|----------------------------------------------|
A|-6-6-8651-1-3-5-------------------------------|
E|----------------------------------------------|

G|----------------------------------------------|
D|----------------------------------------------|
A|-6-6-6\86-1-1-31------------------5-----------|
E|----------------34-4-681011-11/6-6------------|

G|----------------------------------------------|
D|----------------------------------------------|
A|-6-6-865-1-1-31------------------5------------|
E|---------------34-4-681011-11/6-6-------------|

G|----------------------------------------------|
D|----------------------------------------------|
A|-6-6-8651-1-3-5-------------------------------|
E|----------------------------------------------|

G|----------------------------------------------|
D|----------------------------------------------|
A|-6-6-6\86-1-1-31-----------------5------------|
E|----------------34-4-681011-11/6--------------|

G|----------------------------------------------|
D|----------------------------------------------|
A|-6-6-865-1-1-31-------------------------------|
E|---------------34-4-681011-11/6-66-66-66------|

G|----------------------------------------------|
D|----------------------------------------------|
A|-6-8-10-8-6-5---------------------------------|
E|----------------------------------------------|

G|----------------------------------------------|
D|----------------------------------------------|
A|-6-6-6\86-1-1-31-----------------5------------|
E|----------------34-4-681011-11/6--------------|

G|----------------------------------------------|
D|----------------------------------------------|
A|-6-6-865-1-1-31-------------------------------|
E|---------------34-4-681011-11/6---------------|

G|----------------------------------------------|
D|-3-1-3-5-3-5-6-5-3-6-5-3----------------------|
A|-------------------------1-666-555-333-1------|
E|-----------------------------------------4----|

G|----------------------------------------------|
D|-3-1-3-5-3-5-6-5-3-5-3-1----6-5-3-1-----------|
A|------------------------------------5---------|
E|----------------------------------------------|

G|----------------------------------------------|
D|----------------------------------------------|
A|-6-6-6\86-1-1-31-----------------5------------|
E|----------------34-4-681011-11/6--------------|

G|----------------------------------------------|
D|----------------------------------------------|
A|-6-6-865-1-1-31-----------------5-------------|
E|---------------34-4-681011-11/6---------------|

G|----------------------------------------------|
D|----------------------------------------------|
A|-6-6-865-1-1-31-----------------5-------------|
E|---------------34-4-681011-11/6---------------|

G|----------------------------------------------|
D|----------------------------------------------|
A|-6-6-865-1-1-31-----------------5-------------|
E|---------------34-4-681011-11/6---------------|

G|------------------------------------------------------------------|
D|------------------------------------------------------------------|
A|-6-6-1-6-1-666-1-6-6-1-6-1-111-6-6-6-1-6-1-666-1-6-6--1-6-1-111-6-|
E|------------------------------------------------------------------|
            
Submit corrections

↑ Back to top | Tablatures and chords for acoustic guitar and electric guitar, ukulele, drums are parodies/interpretations of the original songs. You may use it for private study, scholarship, research or language learning purposes only