Home » V » Vince Guaraldi »

Vince Guaraldi - Skating Tabs

Artists:  A B C D E F G H I J K L M N O P Q R S T U V W X Y Z # 

Skating Tabs

(ver. 1) Click to play this song!
Vince Guaraldi
[Intro]  
  C6/9                     F6/9                     G6/9                     F6/9
e|----8-----------8-------|----8-----------8-------|----10----------10------|----8-----------8-------|
B|----8-----------8-------|----8-----------8-------|----10----------10------|----8-----------8-------|
G|----7-----------7-------|----7-----------7-------|----9-----------9-------|----7-----------7-------|
D|----7-----------7-------|----7-----------7-------|----9-----------9-------|----7-----------7-------|
A|------------------------|----8-----------8-------|----10----------10------|----8-----------8-------|
E|----8-----------8-------|------------------------|------------------------|------------------------|
  1 e + a 2 e + a 3 e + a |1 e + a 2 e + a 3 e + a |1 e + a 2 e + a 3 e + a |1 e + a 2 e + a 3 e + a |


[A]
  C                        F                        G                        F
e|7---8---7---5---7---5---|------------------------|------------------------|------------------------|
B|8---10--8---6---8---6---|8---10--8---6---8---6---|------------------------|------------------------|
G|------------------------|9---10--9---7---9---7---|9---10--9---7---9---7---|5---------------4-------|
D|------------------------|------------------------|10--12--10--9---10--9---|7-----------------------|
A|------------------------|------------------------|------------------------|------------------------|
E|------------------------|------------------------|------------------------|------------------------|
  1 e + a 2 e + a 3 e + a |1 e + a 2 e + a 3 e + a |1 e + a 2 e + a 3 e + a |1 e + a 2 e + a 3 e + a |

  C                        Eb                       F#                       A                        
e|------------------------|6-----------------------|6-----------------------|5-----------------------|
B|------------------------|8-----------------------|7-----------------------|5-----------------------|
G|------------------------|8-----------------------|6-----------------------|6-----------------------|
D|7-----------------------|8-----------------------|8-----------------------|7-----------------------|
A|------------------------|6-----------------------|9-----------------------|7-----------------------|
E|------------------------|------------------------|------------------------|5-----------------------|
  1 e + a 2 e + a 3 e + a |1 e + a 2 e + a 3 e + a |1 e + a 2 e + a 3 e + a |1 e + a 2 e + a 3 e + a |

  C                        F                        G                        F
e|7---8---7---5---7---5---|------------------------|------------------------|------------------------|
B|8---10--8---6---8---6---|8---10--8---6---8---6---|------------------------|------------------------|
G|------------------------|9---10--9---7---9---7---|9---10--9---7---9---7---|------------------------|
D|------------------------|------------------------|10--12--10--9---10--9---|10--------------9-------|
A|------------------------|------------------------|------------------------|------------------------|
E|------------------------|------------------------|------------------------|------------------------|
  1 e + a 2 e + a 3 e + a |1 e + a 2 e + a 3 e + a |1 e + a 2 e + a 3 e + a |1 e + a 2 e + a 3 e + a |

 |-------------------------------------First Ending--------------------------------------------------| 
 |C                        Eb                       Ab                       Db                      |
e|------------------------|------------------------|8-----------------------|9-------9---------------|
B|------------------------|------------------------|9-------9---------------|9---------------9-------|
G|------------------------|8-------8---------------|8---------------8-------|10----------------------|
D|10----------------------|8---------------8-------|10----------------------|11----------------------|
A|------------------------|10----------------------|11----------------------|11----------------------|
E|------------------------|11----------------------|------------------------|9-----------------------|
  1 e + a 2 e + a 3 e + a |1 e + a 2 e + a 3 e + a |1 e + a 2 e + a 3 e + a |1 e + a 2 e + a 3 e + a |

 |-------------------------------Second Ending-------------------------------------------------------|
 |                                                                                                   |
e|------------------------|------------------------|------------------------|------------------------|
B|------------------------|------------------------|------------------------|------------------------|
G|------------------------|------------------------|------------------------|------------------------|
D|10----------------------|------------------------|5---------------5-------|6---------------6-------|
A|------------------------|8---------------8-------|--------5---------------|--------7---------------|
E|------------------------|--------8---------------|------------------------|------------------------|
  1 e + a 2 e + a 3 e + a |1 e + a 2 e + a 3 e + a |1 e + a 2 e + a 3 e + a |1 e + a 2 e + a 3 e + a |


[B]
  Fm7                      Bb13            Bb7(#5)  Ebmaj7
e|------------------------|------------------------|------------------------|------------------------|
B|4---6---4---6---4---6---|8---------------6-------|------------------------|------------------------|
G|5---7---5---7---5---7---|8-----------------------|7-----------------------|------------------------|
D|------------------------|------------------------|--------8-------5-------|----------------5-------|
A|------------------------|------------------------|------------------------|5-------6---------------|
E|------------------------|------------------------|------------------------|------------------------|
  1 e + a 2 e + a 3 e + a |1 e + a 2 e + a 3 e + a |1 e + a 2 e + a 3 e + a |1 e + a 2 e + a 3 e + a |

  Ebm7                     Ab13            Ab7(#5)  Dbmaj7                   G7(b9)sus
e|------------------------|------------------------|------------------------|------------------------|
B|------------------------|6-----------------------|------------------------|------------------------|
G|6---8---6---8---6---8---|6-----------------------|------------------------|------------------------|
D|4---8---4---8---4---8---|----------------8-------|10----------------------|10--------------9-------|
A|------------------------|------------------------|------------------------|------------------------|
E|------------------------|------------------------|------------------------|------------------------|
  1 e + a 2 e + a 3 e + a |1 e + a 2 e + a 3 e + a |1 e + a 2 e + a 3 e + a |1 e + a 2 e + a 3 e + a |            
Submit corrections

↑ Back to top | Tablatures and chords for acoustic guitar and electric guitar, ukulele, drums are parodies/interpretations of the original songs. You may use it for private study, scholarship, research or language learning purposes only