Home » V » Vince Guaraldi »

Vince Guaraldi - O Tannenbaum Bass

Artists:  A B C D E F G H I J K L M N O P Q R S T U V W X Y Z # 

O Tannenbaum Bass

(ver. 1) Click to play this song!
Vince Guaraldi
0:37
[Main Riff]
G|---------------------------------------p-p------------------|
D|----------------10------3-5-7-5-3-5-7-7-5-0-6-5---3-5-7-5---|
A|-------6-5---------10---------------------------3-----------|
E|-1-3-5-----5-3--------8-------------------------------------|

G|-------------------------------------p-p----4-5-5---5-------|
D|-3-4-5--7-7-6-5---7-7-0-5---3-5-7-7-5-0-6-5-------3---3-----|
A|----------------3---------3---------------------------------|
E|------------------------------------------------------------|

G|---3-0-1-2-----1-0------9-10-15-14-12-10-9----------2-------|
D|-3---------1-0-----9-10--------------------12-11-10---4-----|
A|--------------------------------------------------------5---|
E|------------------------------------------------------------|

G|------------------------------------------------------------|
D|-5-----2-5-3-5-7-7-8-10-11-12-------------------------------|
A|---3-5------------------------12-10------5-3-------7-10-8---|
E|----------------------------------10-5-3-----6-5-8----------|

G|-----------------------------5---3-2-0---------5-6-7-9-10---|
D|----------10-11-12-------0-----3-------3-5-7-8--------------|
A|-10-12-13----------12-10---3--------------------------------|
E|------------------------------------------------------------|

G|-11-12-9-10-9----9-10-9-8-7-----------p----------3-2-3-5----|
D|--------------12------------10-8-7-6-5-0-------3------------|
A|-----------------------------------------4-3----------------|
E|---------------------------------------------3--------------|

G|-----5-3---------------------------------5-6-7--------------|
D|-3-4-----0-7-6-5-0-------------5-3-5-7-8-------7-5-------3--|
A|---------------------------5-3---------------------5-3-3----|
E|-------------------6-3-4-5----------------------------------|

G|-14-15-17-15-14-12-10---------------------------------------|
D|----------------------12------------------------------------|
A|-------------------------13-12-10-----7-8---------0-3-1-0-4-|
E|----------------------------------9-8-----6-5-3-1-----------|

G|---7-10-10-7-8-9-10----14-12-10-10-9-8---7---0--------------|
D|-7------------------10-----------------7---8--------0-------|
A|-----------------------------------------------1------3-2-3-|
E|--------------------------------------------------3---------|

G|---2-0---------5-6-7-----4-5-----3-2-0---|
D|-2-----3-5-7-8-------6-5-------3-------3-|
A|-----------------------------3-----------|
E|-----------------------------------------|

[Solo]
G|----|--------------------------------------------------p----|
D|---2|-----0---0-2-3-4-5-----------------------------7-5-0---|
A|-3--|---0---3-----------5-3-----1-0-------0-1-3-4-5---------|
E|----|-1---------------------0-1-----3-1-3-------------------|

G|---------3-2-0-----2-3-3---2-3-5-2-3-5-7-9-7---5------------|
D|-----5-3-------3-5------0--------------------5---3-5-7-8----|
A|-4-3--------------------------------------------------------|
E|------------------------------------------------------------|

G|-5-6-7---------------3-2-0--------p---p----------3-2-0------|
D|-------7-5-0-----2-3-------3-5-7-7-0-7-0-5-5---3-------3----|
A|-------------4-3-----------------------------3-----------1-1|
E|------------------------------------------------------------|

G|---------------------------2-0---2-2-0----------------------|
D|---0-------3-------------0-------------2-3-5-7-----6-5---3--|
A|-0---0---3---1-0---------------3---------------6-5-----3----|
E|-------3---------3-1-2-3------------------------------------|

G|------------------------------------------------------------|
D|-5-3-5-3-3--------------------------------------------------|
A|------------------------------------------------------------|
E|------------------------------------------------------------|            
Submit corrections

↑ Back to top | Tablatures and chords for acoustic guitar and electric guitar, ukulele, drums are parodies/interpretations of the original songs. You may use it for private study, scholarship, research or language learning purposes only