Home » V » Vince Guaraldi »

Vince Guaraldi - Ginza Samba Tabs

Artists:  A B C D E F G H I J K L M N O P Q R S T U V W X Y Z # 

Ginza Samba Tabs

(ver. 1) Click to play this song!
Vince Guaraldi
[A]

  Ab maj 7                            Db 9 (#11)
e|-4-6-4-----------|-----------------|-----------------|------------------|
B|-------6-4-6-4---|-----------------|-----------------|------------------|
G|---------------5-|-3-5-3-----------|-----------------|------------------|
D|-----------------|-------6-3-6-3---|-3-5-------------|------------------|
A|-----------------|---------------6-|-----------------|------------------|
E|-----------------|-----------------|-----------------|------------------|

  Ab maj 7                            Db 9 (#11)
e|-4-6-4-----------|-----------------|-----------------|------------------|
B|-------6-4-6-4---|-----------------|-----------------|------------------|
G|---------------5-|-3-5-3-----------|-----------------|------------------|
D|-----------------|-------6-3-6-3---|-3-5-------------|------------------|
A|-----------------|---------------6-|-----------------|------------------|
E|-----------------|-----------------|-----------------|------------------|

  Cmaj7             Cm7      F7       Bb maj 7          Bbm7       Eb7
e|-----------------|-----------------|-----------------|------------------|
B|-----------------|-----------------|-----------------|------------------|
G|-----------------|-----------------|-----------------|------------------|
D|-5-----5-----5---|---5-----5-----5-|-----5-----5-----|-5-----5----------|
A|---7-----7-----6-|-----6-----6-----|-5-----5-----5---|---4-----4--------|
E|-----------------|-----------------|-----------------|------------------|

  Abmaj7    Fm7     Bbm7     Eb7      Abmaj7            Bbm7       Eb7
e|-4-6-4-----------|-----------------|-----------------|------------------|
B|-------6-4-6-4---|-----------------|-----------------|------------------|
G|---------------5-|-3-5-3-----------|-----------------|------------------|
D|-----------------|-------6-3-6-3---|-3-6-------------|------------------|
A|-----------------|---------------6-|-----------------|------------------|
E|-----------------|-----------------|-----------------|------------------|

[B]

  Dm7               G7                Cmaj7             
e|-----------------|-----------------|-----------------|------------------|
B|-------5-8-------|------5-8---5----|-----------------|-------5-8---5----|
G|-----5-----------|-----------------|-----------------|------------------|
D|---7-------------|-----------------|-5---------------|------------------|
A|-----------------|-----------------|-----------------|------------------|
E|-----------------|-----------------|-----------------|------------------|

  Cm7               F7                Bbmaj7
e|-----------------|-----------------|-----------------|------------------|
B|-----------------|---------6-------|-----------------|------------------|
G|-----------------|---567---------7-|-----------------|------------------|
D|-5---------------|-----------------|-----------------|------------------|
A|-----------------|-----------------|-8---------------|------------------|
E|-----------------|-----------------|-----------------|------------------|

  Bm7               E7                Abmaj7
e|-----------------|-----------------|-----------------|------------------|
B|-----------------|--9-----9--------|-----------------|---8------8-------|
G|------6-9--------|------9------9-7-|-9---------------|-------9------9-7-|
D|----7------------|-----------------|-----------------|------------------|
A|--9--------------|-----------------|-----------------|------------------|
E|-----------------|-----------------|-----------------|------------------|

  Am7               D7                Gmaj7             Bbm7       Eb7
e|-----------------|-----------------|-----------------|------------------|
B|-----------------|---7-----7-------|-----------------|------------------|
G|-9---------------|-------7-----7-5-|-7---------------|-8----------------|
D|-----------------|-----------------|-----------------|------------------|
A|-----------------|-----------------|-----------------|------------------|
E|-----------------|-----------------|-----------------|------------------|

Song Structure AABA            
Submit corrections

↑ Back to top | Tablatures and chords for acoustic guitar and electric guitar, ukulele, drums are parodies/interpretations of the original songs. You may use it for private study, scholarship, research or language learning purposes only