Home » V » Villagers »

Villagers - The Waves Tabs

Artists:  A B C D E F G H I J K L M N O P Q R S T U V W X Y Z # 

The Waves Tabs

(ver. 1) Click to play this song!
Villagers
INTRO/VERSE
(em)
e|------------------------|
B|------------0-----------|
G|----0---------------0---|
D|---------2------------2-|   X8(Repeat 8 times for the first time only after intro repeat 2 times)
A|----2-----2----2--------|
E|0------0----0-0---0-----|

up in the diamond sky...
(g)
e|------------------------|
B|------------0-----------|
G|----0---------------0---|
D|---------0------------0-|   X2
A|----2-----2----2--------|
E|3------3----3-3---3-----|

Stronger than you and i..
(d)
e|--2----2----2-|
B|--------------|
G|-----2----2---|
D|0---0----0----| X4
A|--------------|
E|--------------|

AFTER THIS PLAY 

(em)X2 (g)X2 (d)X4 (d/c)X4

*******************
(d/c)
e|--2----2----2-|
B|--------------|
G|-----2----2---|
D|--------------| X4
A|3---3----3----|
E|--------------|
*******************

REPEAT ((em)X2 (g)X2 (d)X4 (d/c)X4) TWO MORE TIMES

***************************************************

CHORUS

(g)X2 (g/f#)X2 (f)X2 (c)X2

****************
(g/f#)
e|------------------------|
B|------------0-----------|
G|----0---------------0---|
D|---------0------------0-|   X2
A|----2-----2----2--------|
E|2------2----2-2---2-----|
*****************
(f)
e|------------------------|
B|------------0-----------|
G|----0---------------0---|
D|---------3------------3-|   X2
A|----3-----3----3--------|
E|1------1----1-1---1-----|
*****************
(c)
e|------------0-----------|
B|----0---------------0---|
G|---------0------------0-|   X2
D|----2-----2----2--------|
A|3------3----3-3---3-----|
E|------------------------|
*****************

REPEAT ((g)X2 (g/f#)X2 (f)X2 (c)X2) TWO MORE TIMES

**AT THIS POINT YOU CAN START STRUMMING IF YOU WISH**
THEN REPEAT VERSE TWICE ((em)X2 (g)X2 (d)X4 (d/c)X4)

THEN CHORUS ((g)X2 (g/f#)X2 (f)X2 (c)X2)) TWICE

ON last pass through after the (C)play the (EM)

THEN ON THE LAST CHORUS INSTEAD OF (F) PLAY (EM)


THEN PLAY

(D) (D/C) (EM) (C)X18

END ON (D/C)
            
Submit corrections

↑ Back to top | Tablatures and chords for acoustic guitar and electric guitar, ukulele, drums are parodies/interpretations of the original songs. You may use it for private study, scholarship, research or language learning purposes only