Home » V » Villagers »

Villagers - Dawning On Me Tabs

Artists:  A B C D E F G H I J K L M N O P Q R S T U V W X Y Z # 

Dawning On Me Tabs

(ver. 1) Click to play this song!
Villagers
E|--------------------------------------------------------------------------------------------------
B|-----------8-----------8-----------8-----------8-----------7-----------7-----------7-----------7--
G|-----0-----------0-----------0-----------0-----------0-----------0-----------0-----------0--------
D|--------9-----------9-----------9-----------9-----------7-----------7-----------7-----------7-----
A|--7-----------7-----------7-----------7-----------5-----------5-----------5-----------5-----------
E|--------------------------------------------------------------------------------------------------

E|--------------------------------------------------------------------------------------------------
B|-----------3-----------3-----------3-----------3-----------5-----------5-----------5-----------5--
G|-----0-----------0-----------0-----------0-----------0-----------0-----------0-----------0--------
D|--------4-----------4-----------4-----------4-----------5-----------5-----------5-----------5-----
A|--2-----------2-----------2-----------2-----------3-----------3-----------3-----------3-----------
E|--------------------------------------------------------------------------------------------------            
Submit corrections

↑ Back to top | Tablatures and chords for acoustic guitar and electric guitar, ukulele, drums are parodies/interpretations of the original songs. You may use it for private study, scholarship, research or language learning purposes only