» » »

Verve Pipe - Gotta Move On Tabs

Artists:  A B C D E F G H I J K L M N O P Q R S T U V W X Y Z # 

Gotta Move On Tabs

(ver. 1) Click to play this song!
Verve Pipe
 Rating:
4/5 (5 votes)


 Gotta Move On lessons Tabs too difficult? Try these video lessons and learn fast
 
                Been playin this one for a while - have fun.

e---------------------------------------------------------|
b---------------------------------------------------------|
G---------------------------------------------------------|
D-2---2---2----2--2---1------1--1----1--1---0----0--------|
A-2---2---2----2--2---2------2--2----2--2---2----2--------|
E---------------------------------------------------------|
          Love is not strong;   love is not stable.
e---------------------------------------------------------|
b-----------------------------------1---1-----------------|
G--------------2-----2--2--2--2-----0---0-----------------|
D--0--0----0---2-----2--2--2--2-----2---2-----------------|
A--2--2----2------------------------3---3-----------------|
E---------------------------------------------------------|
   I tried to hold it, but I wasn't able

e-------------3----3---3---3---3-------------------------------|
b--1---1--1---3----3---3---3---3-------------------------------|
G--0---0--0---0----0---0---0---0---2-----2---2----2------------|
D--2---2--2---0----0---0---0---0---2-----2---2----2------------|
A--3---3--3---2----2---2---2---2-------------------------------|
E-------------3----3---3---3---3-------------------------------|
     I never thought that I'd be  saying this to you

e---------------------------------------------------------|
b---------------------------------------------------------|
G--2---2---2-----2------2----2----------------------------|
D--2---1---1-----1------1----1----------------------------|
A------2---2-----2------2----2----------------------------|
E---------------------------------------------------------|
  but what else could I do?

...and repeat.  sometimes it sounds good to strum these as full chords (hit all the 
end up with a full Em chord, etc.)

Chorus is as simple as it gets:

C                 G
 You know it's alright if you cry a little;
C              G
 Something inside of you's died a little
C                   G
 You don't have to hide, but you've got to...

e---------------------------------------------------------|
b---------------------------------------------------------|
G----------2--2--2--2--2--2--2--2-------------------------|
D----------2--2--2--2--2--2--2--1-------------------------|
A-------------------------------2-------------------------|
E---------------------------------------------------------|
   ...move on.                    You gotta move on.

after the chorus a 2nd guitar plays a few fills - i'll see about figuring those out for 
guys later.  till then, have fun.  comments welcome.
            
Submit corrections



        Gotta Move On lessons Hard to play? Try these video lessons and learn fast Gotta Move On lessons
        
↑ Back to top | Tablatures and chords for acoustic guitar and electric guitar, ukulele, drums are parodies/interpretations of the original songs. You may use it for private study, scholarship, research or language learning purposes only