Home » V » Verve »

Verve - The Sun The Sea Tabs

Artists:  A B C D E F G H I J K L M N O P Q R S T U V W X Y Z # 

The Sun The Sea Tabs

(ver. 1) Click to play this song!
Verve
[intro]
 
e|---------------------------------------------------------------------------------------------------|
B|-------------------------------7---------------------------7--------------------------7------------|
G|------5-5-5-5-5-5-5-5/7--7-7-7-7--5-5-5-5-5-5-5-5/7--7-7-7-7--5-5-5-5-5-5-5-5/7-7-7-7-7------------|
D|-0----5-5-5-5-5-5-5-5/7--7-7-7-7--5-5-5-5-5-5-5-5/7--7-7-7-7--5-5-5-5-5-5-5-5/7-7-7-7-7-(Ring out)-|
A|-0----3-3-3-3-3-3-3-3/5--5-5-5-5--3-3-3-3-3-3-3-3/5--5-5-5-5--3-3-3-3-3-3-3-3/5-5-5-5-5------------|
D|-0-------------------------------------------------------------------------------------------------|
 
e|--------------------------------------------|
B|--------------------------------------------|
G|-0h2--2----0h2--2--2--0h2--2--2--0h2--2--2--|
D|--------------------------------------------|
A|--------------------------------------------|
D|--------------------------------------------|
 
[verse]
 
e|---------------------------------------------------------------|
B|---------------------------------------------------------------|
G|-7--7----5--4---5--5---4-2-0---2--2--7---5--4---5--5--5--4-2-0-|
D|-0--0----0--0---0--0---0-0-0---0--0--0---0--0---0--0--0--0-0-0-| 1,3
A|---------------------------------------------------------------|
D|---------------------------------------------------------------|
 
e|-------------------------------------------------|
B|-------3----------3----------3----------3--------|
G|-2--2--2----2--2--2----2--2--2----2--2--2--2--0--|
D|-0--0--0----0--0--0----0--0--0----0--0--0--------| 2,4
A|-------------------------------------------------|
D|-------------------------------------------------|
 
[Chorus]
 
e|-----------------------------------------------------------------|
B|-----------------------------3--3--3-3-------3--3--3-3---3-------|
G|-5--5--5-5---5-5-5--5--5-5---2--2--2-2--0h2--2--2--2-2---2--0h2--|
D|-2--2--2-2---2-2-2--2--2-2---0--0--0-0-------0--0--0-0---0-------| x1
A|-3--3--3-3---3-3-3--3--3-3---------------------------------------|
D|-----------------------------------------------------------------|
 
e|-----------------------------------------------------------------|
B|-----------------------------3--3--3-3-------3--3--3-3---3-------|
G|-5--5--5-5---5-5-5--5--5-5---2--2--2-2--0h2--2--2--2-2---2-------|
D|-2--2--2-2---2-2-2--2--2-2---0--0--0-0-------0--0--0-0---0-------| x1
A|-3--3--3-3---3-3-3--3--3-3---------------------------------------|
D|-----------------------------------------------------------------|
 
[verse 2]
 
e|-------------------------------------------------------------------------------|
B|---------1---------------------------------------------1-----------------------|
G|-----0h2----2--2--2-2--2-2-2--2-2---2--2--2-2--2-2-0h2---2--2--2-2--2-2-2--2-2-|
D|------------0--0--0-0--0-0-0--0-0---0--0--0-0--0-0-------0--0--0-0--0-0-0--0-0-| x1
A|-------------------------------------------------------------------------------|
D|-------------------------------------------------------------------------------|
 
e|------------------------------------------------------------------------------------------|
B|--------------------1---------------------------------------------1-----------------------|
G|-2--2--2-2--2-2-0h2----2--2--2-2--2-2-2--2-2---2--2--2-2--2-2-0h2---2--2--2-2--2-2-2--2-2-|
D|-0--0--0-0--0-0--------0--0--0-0--0-0-0--0-0---0--0--0-0--0-0-------0--0--0-0--0-0-0--0-0-| x2
A|------------------------------------------------------------------------------------------|
D|------------------------------------------------------------------------------------------|
 
[Chorus] then....
 
[bridge]
 
e|---------------------|
B|--------3---------3--|
G|---2---------2-------|
D|-0----0----0----0----| x4
A|---------------------|
D|---------------------|
 
e|----------5tr------------5tr-------------5tr-------------5---------------|
B|----3--5-----------3--5------------3--5------------3--5------------------|
G|-2--------------2---------------2---------------2------------------------|
D|------------------------------------------------------------0-3b--3b--3b-|
A|-------------------------------------------------------------------------|
D|-------------------------------------------------------------------------|
 
[Intro variation]
 
e|------------------------------------------------------------------------------|
B|------------------------------------------------------------------------------|
G|----------------------------------------------------------------------------5-|
D|-0-(ring out)-0-(ring out)-0-3b--3b--3b-0-(Ring out)-0-(Ring out)-0-3p0-3p0---|
A|-0------------0-------------------------0------------0------------------------|
D|-0------------0-------------------------0------------0------------------------|
 
There is an overdubbed guitar plating something similar to the second bridge riff on the 2nd and 4th repeats
but it is difficult to make out the notes. Could possibly be the same riff.
 
e|-----------------------------------------------------------------|
B|-----------------------------------------------------------------|
G|-7-7-7-7-7-7-7-7-7-7-7-7-7-7-7-7-7-7-7-7-7-7-7-7-7-7-7-7-7-7-7-7-|
D|-----------------------------------------------------------------| x2
A|-5-5-5-5-5-5-5-5-5-5-5-5-5-5-5-5-5-5-5-5-5-5-5-5-5-5-5-5-5-5-5-5-|
D|-----------------------------------------------------------------|
 
e|--------------------------------------------------------------------|
B|--------------------------------------------------------------------|
G|-7-7-7-7-7-7-7-7--7-7-7-7-7-7-7-7-7-7-7-7-7-7-7-7-7-7-7-7-7-7-7-7-7-|
D|--------------------------------------------------------------------|
A|-5-5-5-5-5-5-5-5--5-5-5-5-5-5-5-5-5-5-5-5-5-5-5-5-5-5-5-5-5-5-5-5-5-|
D|-4-4-4-4-4-4-4-4------------------4-4-4-4-4-4-4-4-4/5-5-5-5---------|
 
e|------------------------|
B|------------------------|
G|-5-5-5-5-5-5--7-7--7-7--|
D|------------------------| x2
A|-3-3-3-3-3-3--5-5--5-5--|
D|------------------------|
 
[Sax solo]
 
e|-----------------------------------------------------------------------------------------|
B|-----------------------------------------------------------------------------------------|
G|------------------2p0-------------------2p0-----------------------------------------2p0--|
D|-----------------------------------------------------------------------------------------| x2
A|-0--0--0--0--0--0------0--0--0--0--0--0------0--0--0--0--0--0-0h3--0--0--0--0--0--0------|
D|-0--0--0--0--0--0------0--0--0--0--0--0------0--0--0--0--0--0------0--0--0--0--0--0------|
   *  *  *  *  *  *      *  *  *  *  *  *      *  *  *  *  *  *      *  *  *  *  *  *
 
e|-----------------------------------------------------------------------------------------------|
B|-----------------------------------------------------------------------------------------------|
G|-------------------------------------------2p0-------------------------------------------------|
D|-----------------------------------------------------------------------------------------------| x1
A|-0--0--0--0--0--0--0--0--0--0--0--0--0--0------0--0--0--0--0--0--0--0--0--0--0--0--0--0--0--0--|
D|-0--0--0--0--0--0--0--0--0--0--0--0--0--0------0--0--0--0--0--0--0--0--0--0--0--0--0--0--0--0--|
   *  *  *  *  *  *  *  *  *  *  *  *  *  *      *  *  *  *  *  *  *  *  *  *  *  *  *  *  *  *
 
e|-----------------------------------------------------------------------------------------|
B|-----------------------------------------------------------------------------------------|
G|------------------2p0--------------------------------------------------------------------|
D|-----------------------------------------------------------------------------------------| x1
A|-0--0--0--0--0--0------0--0--0--0--0--0--0--0--0--0--0--0--0--0--0--0--0--0--0--0--0--0--|
D|-0--0--0--0--0--0------0--0--0--0--0--0--0--0--0--0--0--0--0--0--0--0--0--0--0--0--0--0--|
   *  *  *  *  *  *      *  *  *  *  *  *  *  *  *  *  *  *  *  *  *  *  *  *  *  *  *  *
 
e|----------------|
B|----------------|
G|-5--5--5--5/7---|
D|-5--5--5--5/7---| x4
A|-3--3--3--3/5---|
D|----------------|
 
e|------------------------------------|
B|------------------------------------|
G|-5--5--5--5/7-----------------------|
D|-5--5--5--5/7-----------------------|
A|-3--3--3--3/5--0--0--0--0--0--0--0--|
D|---------------0--0--0--0--0--0--0--|
                 *  *  *  *  *  *  *        
            
Submit corrections

↑ Back to top | Tablatures and chords for acoustic guitar and electric guitar, ukulele, drums are parodies/interpretations of the original songs. You may use it for private study, scholarship, research or language learning purposes only