» » »

Verve - The Bittersweet Symphony Tabs

Artists:  A B C D E F G H I J K L M N O P Q R S T U V W X Y Z # 

The Bittersweet Symphony Tabs

(ver. 1) Click to play this song!
Verve
 Rating:
4.4/5 (17 votes)

 The Bittersweet Symphony  lessons Tabs too difficult? Try these video lessons and learn fast
 
                [Intro]

 (bass strings: viola)  
e|-----------------------|-----------------------|-----------------------|-----------------------|
B|-----------------------|-----------------------|-----------------------|-----------------------|
G|-----------------------|-----------------------|-----------------------|-----------------------|
D|2----------------------|-----------------------|2----------------------|-----------------------|
A|------------2----------|5-----------0----------|------------2----------|5-----------0----------|
E|-----------------------|-----------------------|-----------------------|-----------------------|
  1  &  2  &  3  &  4  &  1  &  2  &  3  &  4  &  1  &  2  &  3  &  4  &  1  &  2  &  3  &  4  & |
                                                                                                 |
 (middle strings: alt's)                                                                         |
e|-----------------------|-----------------------|-----------------------|-----------------------|
B|9-----------10---------|10----------10---------|9-----------10---------|10----------10---------|
G|9-----------7----------|9-----------9----------|9-----------7----------|9-----------9----------|
D|-----------------------|-----------------------|-----------------------|-----------------------|
A|-----------------------|-----------------------|-----------------------|-----------------------|
E|-----------------------|-----------------------|-----------------------|-----------------------|
  1  &  2  &  3  &  4  &  1  &  2  &  3  &  4  &  1  &  2  &  3  &  4  &  1  &  2  &  3  &  4  & |
                                                                                                 |
 (melody strings: violin)                                                                        |
e|-----------------------|10----10----9-----9----|-----------------------|10----10----9-----9----|
B|12----12----10----10---|---10----------10------|12----12----10----10---|---10----------10------|
G|---13----13----11------|-----------------------|---13----13----11------|-----------------------|
D|-----------------------|-----------------------|-----------------------|-----------------------|
A|-----------------------|-----------------------|-----------------------|-----------------------|
E|-----------------------|-----------------------|-----------------------|-----------------------|
  1  &  2  &  3  &  4  &  1  &  2  &  3  &  4  &  1  &  2  &  3  &  4  &  1  &  2  &  3  &  4  &            
Submit corrections


        The Bittersweet Symphony  lessons Hard to play? Try these video lessons and learn fast The Bittersweet Symphony  lessons
        
↑ Back to top | Tablatures and chords for acoustic guitar and electric guitar, ukulele, drums are parodies/interpretations of the original songs. You may use it for private study, scholarship, research or language learning purposes only