Home » V » Vertical Church Band »

Vertical Church Band - Yes I Will Tabs

Artists:  A B C D E F G H I J K L M N O P Q R S T U V W X Y Z # 

Yes I Will Tabs

(ver. 1) Click to play this song!
Vertical Church Band
 Rating:
4.3/5 (9 votes)
                [Intro] - Acoustic Guitar and piano

[Verse 1] - Acoustic Guitar and piano

[Chorus 1]

e|--------------------|
B|-----1---------3----|
G|---0---------0------|
D|-3-----2-3/5-----2--|
A|--------------------|
E|--------------------|

[Instrumental] - Full band with electric riff

e|-----5-----7---7-8-----5-----7---7-5----|
B|-5h8---8-5---5-----5h8---8-5---5--------|
G|----------------------------------------|
D|----------------------------------------|
A|----------------------------------------|
E|----------------------------------------|

[Verse 2] - 
                                 >
e|--8-7-5-3-------------------------------|
B|--------------------1-------------------|
G|-9----------------0----------7/9--7\5---|
D|--------------2h3-----2-----------------|
A|----------------------------------------|
E|----------------------------------------|

[Chorus 2]

e|-------------------------- R --------------|
B|--------13---------12--13- E --13--13--12--|
G|--10/12----------12------- P --12--12--12--|
D|-----------14--12--------- E --15--14--12--|
A|-------------------------- A --------------|
E|-------------------------- T --------------|

[Bridge] "I choose to praise...." and used on [Chorus to end until final Tag]

e|--13----13-12------------12-----|
B|-----13--------15-13-15---------|
G|----------------------------PM5-|
D|--------------------------------|
A|--------------------------------|
E|--------------------------------|

            
Submit corrections

↑ Back to top | Tablatures and chords for acoustic guitar and electric guitar, ukulele, drums are parodies/interpretations of the original songs. You may use it for private study, scholarship, research or language learning purposes only