» » »

Vertical Church Band - Found In You Bass

Artists:  A B C D E F G H I J K L M N O P Q R S T U V W X Y Z # 

Found In You Bass

(ver. 1) Click to play this song!
Vertical Church Band
 Rating:
4/5 (4 votes)

 Found In You  lessons Tabs too difficult? Try these video lessons and learn fast
 
                Tuning: EADG - Key of C - 120 BPM

Intro (no bass until 0:34) 
G|---------------------------------------------------------------------------|
D|---------------------------------------------------------------------------|
A|-----------------------12\-----------------------------12\-----------------|
E|1-1/13-13\8-8-8----5-5/---3-3-3-1-1/13-13\8-8-8----5-5/---3-3-3------------|

Verse I (no bass until 1:06)
G|---------------------------------------------------------------------------|
D|---------------------------------------------------------------------------|
A|---------------------------------------------------------------------------|
E|13/-17-15----13/-17-15\----------------------------------------------------|

chorus (1:22)
G|---------------------------------------------------------------------------|
D|---------------------------------------------------------------------------|
A|---------------------------------------------------------------------------|
E|8----1----5----3----8----1----5--------------------------------------------|

Intro (1:39) 
G|---------------------------------------------------------------------------|
D|---------------------------------------------------------------------------|
A|-----------------------12\-----------------------------12\-----------------|
E|1-1/13-13\8-8-8----5-5/---3-3-3-1-1/13-13\8-8-8----5-5/---3-3-3------------|

Verse II - repeats 4 times (1:46)
G|---------------------------------------------------------------------------|
D|---------------------------------------------------------------------------|
A|---------------------------------------------------------------------------|
E|1111-5555-3333/----15-15-15-15---------------------------------------------|

chorus (2:19)
G|---------------------------------------------------------------------------|
D|---------------------------------------------------------------------------|
A|---------------------------------------------------------------------------|
E|8888-1111-5555-3333-8888-1111-5555-3333------------------------------------|

Intro (2:36) 
G|---------------------------------------------------------------------------|
D|---------------------------------------------------------------------------|
A|-----------------------12\-----------------------------12\-----------------|
E|1-1/13-13\8-8-8----5-5/---3-3-3-1-1/13-13\8-8-8----5-5/---3-3-3------------|

Grid (no bass until 3:08)
G|---------------------------------------------------------------------------|
D|---------------------------------------------------------------------------|
A|---------------------------------------------------------------------------|
E|5/13----/17----15\----1111-5555-3333/15-15-15-15-1111-5555-3333/15-15-15-15|

chorus repeats 4 times (3:24)
G|---------------------------------------------------------------------------|
D|---------------------------------------------------------------------------|
A|---------------------------------------------------------------------------|
E|8----1----5----3-----------------------------------------------------------|

Intro (3:56) 
G|---------------------------------------------------------------------------|
D|---------------------------------------------------------------------------|
A|-----------------------12\-----------------------------12\-----------------|
E|1-1/13-13\8-8-8----5-5/---3-3-3-1-1/13-13\8-8-8----5-5/---3-3-3-3-3-3-8----|            
Submit corrections


        Found In You  lessons Hard to play? Try these video lessons and learn fast Found In You  lessons
        
↑ Back to top | Tablatures and chords for acoustic guitar and electric guitar, ukulele, drums are parodies/interpretations of the original songs. You may use it for private study, scholarship, research or language learning purposes only