Home » V » Ventures »

Ventures - Guitar Man Tabs

Artists:  A B C D E F G H I J K L M N O P Q R S T U V W X Y Z # 

Guitar Man Tabs

(ver. 1) Click to play this song!
Ventures
[Intro]
 
e|---------------------------------------------------------------------------|
B|---------------------------------------------------------------------------|
G|---------------------------------------------------------------------------|
D|---------------------------------------------------------------------------|
A|---------------------------------------------------------------------------|
E|-0--0--0--0--0-0-2-4-------------------------------------------------------|
 
 
 
[Part 1]
 
e|---------------------------------------------------------------------------|
B|---------------------------------------------------------------------------|
G|---------------------------------------------------------------------------|
D|---------2-2-4-2----------2-2-4-2----------2-2-4-2----------2-2-4-2--------|
A|-0-0-3-4----------0-0-3-4----------0-0-3-4----------0-0-3-4----------------|
E|---------------------------------------------------------------------------|
 
e|---------------------------------------------------------------------------|
B|---------------------------------------------------------------------------|
G|---------2-2-4-2----------2-2-4-2----------2-2-4-2-------------------------|
D|-0-0-3-4----------0-0-3-4----------0-0-3-4----------1/2--------------------|
A|---------------------------------------------------------------------------|
E|---------------------------------------------------------0-2-4-------------|
 
 
[Part 2]
 
e|---------------------------------------------------------------------------|
B|---------------------------------------------------------------------------|
G|---------------------------------------------------------------------------|
D|---------------------------------------------------------------------------|
A|---------------------------------------------------------------------------|
E|-4b--4-4--4b--4-4--4b--4--4b--4--4-4---------------------------------------|
 
e|---------------------------------------------------------------------------|
B|---------------------------------------------------------------------------|
G|---------------------------------------------------------------------------|
D|---------------------------------------1/2---------------------------------|
A|-4b--4-4--4b--4-4--4b--4--4b--4--4-4---------------------------------------|
E|---------------------------------------------------------------------------|
 
e|---------------------------------------------------------------------------|
B|---------------------------------------------------------------------------|
G|---------------------------------------------------------------------------|
D|----------------------------------2-2-4-2----------------------------------|
A|--------------------------0-0-3-4------------------------------------------|
E|-0-2-4-2-0--0--0-0-0-2-4---------------------------------------------------|
 
e|---------------------------------------------------------------------------|
B|---------------------------------------------------------------------------|
G|---------------------------------------------------------------------------|
D|---------------------------------------------------------------------------|
A|---------------------------------------------------------------------------|
E|-4b--4-4--4b--4-4--4b--4--4b--4--4-4---------------------------------------|
 
e|---------------------------------------------------------------------------|
B|---------------------------------------------------------------------------|
G|---------------------------------------------------------------------------|
D|---------------------------------------1/2---------------------------------|
A|-4b--4-4--4b--4-4--4b--4--4b--4--4-4---------------------------------------|
E|---------------------------------------------------------------------------|
 
e|---------------------------------------------------------------------------|
B|---------------------------------------------------------------------------|
G|---------------------------------------------------------------------------|
D|----------------------------------2-2-4-2----------------------------------|
A|--------------------------0-0-3-4------------------------------------------|
E|-0-2-4-2-0--0--0-0-0-2-4---------------------------------------------------|
 
 
[Solo]
 
e|---------------------8-10b-10b-10b-10-8------------------------------------|
B|----------------8-10--------------------10-8-------------------------------|
G|----------7-7-9------------------------------9-9-7--9-7--------------------|
D|-2/7-7-10------------------------------------------------7-10-7------------|
A|---------------------------------------------------------------------------|
E|---------------------------------------------------------------------------|
[Intro]
 
e|---------------------------------------------------------------------------|
B|---------------------------------------------------------------------------|
G|---------------------------------------------------------------------------|
D|---------------------------------------------------------------------------|
A|---------------------------------------------------------------------------|
E|-0--0--0--0--0-0-2-4-------------------------------------------------------|
 
 
 
[Part 1]
 
e|---------------------------------------------------------------------------|
B|---------------------------------------------------------------------------|
G|---------------------------------------------------------------------------|
D|---------2-2-4-2----------2-2-4-2----------2-2-4-2----------2-2-4-2--------|
A|-0-0-3-4----------0-0-3-4----------0-0-3-4----------0-0-3-4----------------|
E|---------------------------------------------------------------------------|
 
e|---------------------------------------------------------------------------|
B|---------------------------------------------------------------------------|
G|---------2-2-4-2----------2-2-4-2----------2-2-4-2-------------------------|
D|-0-0-3-4----------0-0-3-4----------0-0-3-4----------1/2--------------------|
A|---------------------------------------------------------------------------|
E|---------------------------------------------------------0-2-4-------------|
 
 
[Part 2]
 
e|---------------------------------------------------------------------------|
B|---------------------------------------------------------------------------|
G|---------------------------------------------------------------------------|
D|---------------------------------------------------------------------------|
A|---------------------------------------------------------------------------|
E|-4b--4-4--4b--4-4--4b--4--4b--4--4-4---------------------------------------|
 
e|---------------------------------------------------------------------------|
B|---------------------------------------------------------------------------|
G|---------------------------------------------------------------------------|
D|---------------------------------------1/2---------------------------------|
A|-4b--4-4--4b--4-4--4b--4--4b--4--4-4---------------------------------------|
E|---------------------------------------------------------------------------|
 
e|---------------------------------------------------------------------------|
B|---------------------------------------------------------------------------|
G|---------------------------------------------------------------------------|
D|----------------------------------2-2-4-2----------------------------------|
A|--------------------------0-0-3-4------------------------------------------|
E|-0-2-4-2-0--0--0-0-0-2-4---------------------------------------------------|
 
e|---------------------------------------------------------------------------|
B|---------------------------------------------------------------------------|
G|---------------------------------------------------------------------------|
D|---------------------------------------------------------------------------|
A|---------------------------------------------------------------------------|
E|-4b--4-4--4b--4-4--4b--4--4b--4--4-4---------------------------------------|
 
e|---------------------------------------------------------------------------|
B|---------------------------------------------------------------------------|
G|---------------------------------------------------------------------------|
D|---------------------------------------1/2---------------------------------|
A|-4b--4-4--4b--4-4--4b--4--4b--4--4-4---------------------------------------|
E|---------------------------------------------------------------------------|
 
e|---------------------------------------------------------------------------|
B|---------------------------------------------------------------------------|
G|---------------------------------------------------------------------------|
D|----------------------------------2-2-4-2----------------------------------|
A|--------------------------0-0-3-4------------------------------------------|
E|-0-2-4-2-0--0--0-0-0-2-4---------------------------------------------------|
 
 
[Solo]
 
e|---------------------8-10b-10b-10b-10-8------------------------------------|
B|----------------8-10--------------------10-8-------------------------------|
G|----------7-7-9------------------------------9-9-7--9-7--------------------|
D|-2/7-7-10------------------------------------------------7-10-7------------|
A|---------------------------------------------------------------------------|
E|---------------------------------------------------------------------------|
            
Submit corrections

↑ Back to top | Tablatures and chords for acoustic guitar and electric guitar, ukulele, drums are parodies/interpretations of the original songs. You may use it for private study, scholarship, research or language learning purposes only