» » »

Venom - Angel Dust Bass

Artists:  A B C D E F G H I J K L M N O P Q R S T U V W X Y Z # 

Angel Dust Bass

(ver. 1) Click to play this song!
Venom
 Rating:
4/5 (4 votes)


 Angel Dust lessons Tabs too difficult? Try these video lessons and learn fast
 
                #


Angel Dust by Venom
Welcome To Hell



Tune to D.

Riff 1 (You dont sing the first time you play this riff I?m
just throwing in the lyrics so you know how it goes with the
music)

G|--2----2------------------|--2----2------------------|
D|--2----2------------------|--2----2------------------|
A|--0----0----5p0--3p0------|--0----0----5p0--3p0------|
E|----------------------3---|----------------------3---|
    Angel Dust                 Need a shot

G|--2----2------------------|--2-----------------------|
D|--2----2------------------|--2----3----3----3-s-5----|
A|--0----0----5p0--3p0------|--0----3----3----3-s-5----|
E|----------------------3---|-------1----1----1-s-3----|
              To see me through the day

G|--2----2------------------|--2----2------------------|
D|--2----2------------------|--2----2------------------|
A|--0----0----5p0--3p0------|--0----0----5p0--3p0------|
E|----------------------3---|----------------------3---|
    Angel Dust                 Wanna lot

G|--2----2------------------|--2-----------------------|
D|--2----2------------------|--2----3----3----3-s-5----|
A|--0----0----5p0--3p0------|--0----3----3----3-s-5----|
E|----------------------3---|-------1----1----1-s-3----|
              I gotta get away


Riff 2 (play twice)

G|--2----2----------2---|---5----5----7----5---|
D|--2----2----------2---|---5----5----7----5---|
A|--0----0----------0---|---3----3----5----3---|
E|------------3--4------|----------------------|

G|--2----2----------2---|---5----5-------------|
D|--2----2----------2---|---5----5----5----5---|
A|--0----0----------0---|---3----3----5----5---|
E|------------3--4------|-------------3----3---|


Riff 3

G|--2----2----------2---|--2----2----------2---|
D|--2----2----------2---|--2----2----------2---|
A|--0----0----------0---|--0----0----------0---|
E|------------3--4------|------------3--4------|
     Livin'                 Runin'
G|--2----2----------2---|---5----5----7----5---|
D|--2----2----------2---|---5----5----7----5---|
A|--0----0----------0---|---3----3----5----3---|
E|------------3--4------|----------------------|
     Out on the streets at night
G|--2----2----------2---|--2----2----------2---|
D|--2----2----------2---|--2----2----------2---|
A|--0----0----------0---|--0----0----------0---|
E|------------3--4------|------------3--4------|
     Searchin'                Hopin'
G|--2----2----------2---|---5----5-------------|
D|--2----2----------2---|---5----5----5----5---|
A|--0----0----------0---|---3----3----5----5---|
E|------------3--4------|-------------3----3---|
         For the right connection    cuz' I...

Riff 4

G|----------------------|---------------------|
D|--2----2--------------|--2----2-------------|
A|--2----2--------------|--2----2-------------|
E|--0----0---0-0-0-0-0--|--0----0--0-0-0-0-0--|
    Need it                Want it

G|---------------------|----------------------|
D|--2----2-------------|---5----5----7----5---|
A|--2----2-------------|---5----5----7----5---|
E|--0----0---0-0-0-0-0-|---3----3----5----3---|
     You know I got to have it

G|----------------------|---------------------|
D|--2----2--------------|--2----2-------------|
A|--2----2--------------|--2----2-------------|
E|--0----0---0-0-0-0-0--|--0----0--0-0-0-0-0--|
    Takes me                Higheeeeer!

G|---------------------|----------------------|
D|--2----2-------------|---5----5----7----5---|
A|--2----2-------------|---5----5----7----5---|
E|--0----0---0-0-0-0-0-|---3----3----5----3---|
      Than anything I know


Riff 5

G|---------------------|----------------------|
D|--3--3--3--5--5--5---|---7--7--7--5--5--5---|
A|--3--3--3--5--5--5---|---7--7--7--5--5--5---|
E|--1--1--1--3--3--3---|---5--5--5--3--3--3---|

G|---------------------|
D|--3--3--3--5--5--5---|
A|--3--3--3--5--5--5---|
E|--1--1--1--3--3--3---|

To Riff 1 (This time with lyrics)
   Riff 2 (play twice)
   Riff 3
I live, my life, like there's no tomorrow.
Take no, chances, I'm drowning all my sorrows
    Cuz I....
   Riff 4
   Riff 5
   Riff 1
         I've got to go!!  (now to interlude)

Riff 6 (Repeat 6 times, solo comes in at
           the begining of the 3rd time)

G|--------------------------|-----------------7-----|
D|--7--7--7--5--3--3--3--3--|--5--5--5-5--5---7--7--|
A|--7--7--7--5--3--3--3--3--|--5--5--5-5--5---5--7--|
E|--5--5--5--3--1--1--1--1--|--3--3--3-3--3------5--|

     Shoot to refrain which is Riff 1,
     but no lyrics with it this time.
   Riff 3 (Go straight to verse with lyrics
                     skip Riff 2)
Laughing, Crying, everynight and day
You know, I know that i'm a different man,
beacuase I.....
   Riff 4
   Riff 5
   Riff 1

Riff 6 (play twice)

Ending (played immediatly after riff 6)

G|--5-------8-------5---------------------|
D|--5--5----8--8----5--5----7777777777777-|
A|--3--5----6--8----3--5----7777777777777-|
E|-----3-------6-------3----5555555555555-|..make noise

G|--2----2-----------------2----2--|
D|--2----2-----------------2----2--|
A|--0----0----5p0--3p0-----0----0--|
E|----------------------3----------|   Ohhh!

There it is, Angel Dust.
Any questions or comments E-mail me or Mike.
Our addresses our at the top of the page.
We should have a little more Venom coming
your way along with some Carnivore
and Iron Maiden tab too.  Hope you enjoy!
            
Submit corrections



        Angel Dust lessons Hard to play? Try these video lessons and learn fast Angel Dust lessons
        
↑ Back to top | Tablatures and chords for acoustic guitar and electric guitar, ukulele, drums are parodies/interpretations of the original songs. You may use it for private study, scholarship, research or language learning purposes only