» » »

Vasco Rossi - Gli Angeli Chords

Artists:  A B C D E F G H I J K L M N O P Q R S T U V W X Y Z # 

Gli Angeli Chords

(ver. 1) Click to play this song!
Vasco Rossi
 Rating:
4.4/5 (7 votes)

 Gli Angeli lessons Tabs too difficult? Try these video lessons and learn fast
 
                [Intro]
e|-----------0-----0------------------0-0------------------------------|
B|-------0-----------0------------1-------1------------------0---------|
G|-----0---0-----------0--------2---2-------2------------0-------0-----|
D|---2-------------------2----4---------------4--------0---0---0-----0-|
A|-3-----------(3)----------3-------------------3----2-----------------|
E|-------------------------------------------------3---------------3---|

e|----------------------0------------------|
B|-------------3----------3----------------|
G|-----------0---0----------0--------------|
D|---------4-------4----------4--------0-2-|
A|-------2-----------(3)--------2--0h2---2-|
E|-3-2-0---------------------------------0-|

[Verse]

e|---------------0-----------------------------0----------------0-----2-2-------|
B|---------3-------3----------------3-----1------1----------3-----3-------3-----|
G|-------0---0-------0----------0-----0------------0------2---2-----2-------2---|
D|-----4-------4-------4------2---2-----2------------2--0---------------------0-|
A|---2-------------------2--0---------------(0)---------------------------------|
E|-0----------------------------------------------------------------------------|

e|---------------3--------------------------------0--------------------------|
B|---------3-------------------3------------3-------3----------------3-----1-|
G|-------0---0---------0-----2---2--------0---0-------0----------0-----0-----|
D|-----0-------0-----0---0--------------4-------4-------4------2---2-----2---|
A|---2--------------------------------2-------------------2--0---------------|
E|-3---------------3-------2--------0----------------------------------------|

e|-----0----------------0h2--------------0-------------------------3-|
B|-------1----------3-------3--------3-----3--------------3-----3--3-|
G|---------0------2---2-------2----2---2-----2----------------0----0-|
D|-----------2--0------------------------------0------0-----0------0-|
A|--(0)--------------------------3------------------2---2----------2-|
E|------------------------------------------------3----------------3-|


[Chorus]

e|----------------------------------------------------------------------------|
B|---------5----------------3----------------1----------------3---------------|
G|-----0-------0--------0-------0--------0-------0----------------0----x--2---|
D|---2---2---2---2----4---4---4---4----2---2---2---2------4-----4---4---------|
A|-3----------------2----------------0------------------2---2-----------------|
E|----------------------------------------------------0-----------------------|

e|-----------------------------------------------------3--3--------|
B|---------5----------------3----------------1---------3----3------|
G|-----0-------0--------0-------0--------0-------0-----0------0----|
D|---2---2---2---2----4---4---4---4----2---2---2---2---0--------0--|
A|-3----------------2----------------0-----------------2-----------|
E|-----------------------------------------------------3-----------|

e|---------------------------------------------------|
B|----------5----------------3-----------------------|
G|------0-------0--------0-------0-----2-------------|
D|----2---2---2---2----4---4---4---4---2-------------|
A|--3----------------2-----------------0-------------|
E|---------------------------------------------------|


[Outro]

e|-----------|-------|------------|-------|-----------|-------|--------------------|
B|-------0---|-------|--------3---|-------|--------0--|-------|--------------------|
G|---0-------|-x--2--|----2-------|-x--2--|----0------|-x--2--|----------0--x--2---|
D|-2---2-----|-------|--4---4-----|-------|--0---0----|-------|------4-------------|
A|-----------|-------|------------|-------|-----------|-------|----2---2-----------|
E|-----------|-------|------------|-------|-----------|-------|-(0)----------------|

e|-----------------------------------------------------|
B|-----------------------------------------------------|
G|-----------------------------------------------------|
D|-----------------------------------------------------|
A|-----------------------------------------------------|
E|-----------------------------------------------------|

            
Submit corrections


        Gli Angeli lessons Hard to play? Try these video lessons and learn fast Gli Angeli lessons
        
↑ Back to top | Tablatures and chords for acoustic guitar and electric guitar, ukulele, drums are parodies/interpretations of the original songs. You may use it for private study, scholarship, research or language learning purposes only