» » »

Vampire Weekend - Ottoman Bass

Artists:  A B C D E F G H I J K L M N O P Q R S T U V W X Y Z # 

Ottoman Bass

(ver. 3) Click to play this song!
Vampire Weekend
 Rating:
4/5 (4 votes)


 Ottoman lessons Tabs too difficult? Try these video lessons and learn fast
 
                
Standard Tuning 


(00:09 – 00:35)
|-------------------------------------| 
|-------------------------------------| 
|----7---7--2---2------2---2---5---5--| (x6)
|--5---5-----2---2---3---3---3---3----|

(00:35 – 01:02)

|-------------------------------------|  
|-------------------------------------| 
|-----------2------5---5--------------| (x6)
|--55--7--2----33----5----------------|

(01:11 – 01:28)

|----------------------------------------------------------------| 
|----------------------------------------------------------------| 
|---------------------------------------9-12-10101010101010------| (x2)
|--5555555555/17171717\5555 10101010-12--------------------------| 

(01:28 – 01:46)

|--------------------------------------------------------------4---| 
|--------------------------------4-----4-----4-5-7-7-5-4---4-5---5-| 
|------4-----4-5-7-----4-----4-7---5-7---5-7-------------7---------| (x2)
|--5-7---5-7-------5-7---5-7---------------------------------------|

(01:50 – 02:08)

|-------------------------------------|  
|-------------------------------------| 
|-----------2------5---5--------------| (x3)
|--55--7--2----33----5----------------|

(02:17 - 02:34)

|----------------------------------------------------------------| 
|----------------------------------------------------------------| 
|---------------------------------------9-12-10101010101010------| (x2)
|--5555555555/17171717\5555 10101010-12--------------------------| 

(02:34 – 02:52)

|--------------------------------------------------------------4---| 
|--------------------------------4-----4-----4-5-7-7-5-4---4-5---5-| 
|------4-----4-5-7-----4-----4-7---5-7---5-7-------------7---------| (x2)
|--5-7---5-7-------5-7---5-7---------------------------------------|

(02:52 – Till End)

|----------------------------------------------------------------| 
|----------------------------------------------------------------| 
|-1212-1212121212-1010-1010101010-99-99999-1414-1414141414-------| 
|----------------------------------------------------------------| 

Repeat Till End
            
Submit corrections



        Ottoman lessons Hard to play? Try these video lessons and learn fast Ottoman lessons
        
↑ Back to top | Tablatures and chords for acoustic guitar and electric guitar, ukulele, drums are parodies/interpretations of the original songs. You may use it for private study, scholarship, research or language learning purposes only