» » »

Vampire Weekend - M79 Bass

Artists:  A B C D E F G H I J K L M N O P Q R S T U V W X Y Z # 

M79 Bass

(ver. 3) Click to play this song!
Vampire Weekend
 Rating:
4/5 (4 votes)


 M79 lessons Tabs too difficult? Try these video lessons and learn fast
 
                -------------------------------------------------------------------------------
			     M79 - Vampire Weekend
-------------------------------------------------------------------------------



Tuning: Normal - you pretty much palm mute (slightly) the whole song


fun and easy song to play
i wanted to make a more correct tab, so i watched some live footage and came up with this.
i think its all pretty true to how chris baio plays it,
except im not too sure about the last 2 notes of the 2nd line.
feel free to correct it.


G|-------------------------------------------------------------------------------------|
D|-----12-12----12-------------------------------12-12----12---------------------------|
A|--------------------12----10-10----10----12-------------------12----10-10----10----12|
E|--15-------15----14----12-------12----14----15-------15----14----12-------12----14---|



G|-----------------------------------------------------------------------|
D|-----12-12----12------------------------------7-7---7---9-------------7|
A|--------------------12----10-10----10----12-----------------7-7---7----|
E|--15-------15----14----12-------12----10----5-----5---7---0-----0---5--|



G|-------------------------------|
D|--0-0-0---0-0-0---0-0-0---0---0|
A|--------0-------0-------3---3--|
E|-------------------------------|



G|------------------------------------------------|
D|------------------------------------------------|
A|--3---5-5---3---5-5---7----3---5-5---3---5-5----|
E|-----------------------------------------------3|



G|---------------------------------------------------------------------------------|
D|---------------------------------------------------------------------------------|
A|------------------3-3-3-3-5-5-5-5-----------------3-3-3-3-5-5-5-5----------------|
E|--3-3-3-3-3-3-3-3-----------------3-3-3-3-5-5-5-5-----------------3-3-3-3-3-3-3-3|



G|-------------------------------------------------|
D|-------------------------------------------------|
A|--3-3-3-3-5-5-5-5-----------------3-3-3-3-5-5-5-5|
E|------------------3-3-3-3-5-5-5-5----------------|



| /  slide up
| \  slide down
| h  hammer-on
| p  pull-off
| ~  vibrato
| +  harmonic
| x  Mute note
===============================================================================
            
Submit corrections



        M79 lessons Hard to play? Try these video lessons and learn fast M79 lessons
        
↑ Back to top | Tablatures and chords for acoustic guitar and electric guitar, ukulele, drums are parodies/interpretations of the original songs. You may use it for private study, scholarship, research or language learning purposes only