» » »

Valley Of Chrome - Art Of Letting Go Tabs

Artists:  A B C D E F G H I J K L M N O P Q R S T U V W X Y Z # 

Art Of Letting Go Tabs

(ver. 3) Click to play this song!
Valley Of Chrome
 Rating:
4/5 (4 votes)


 Art Of Letting Go lessons Tabs too difficult? Try these video lessons and learn fast
 
                (2)
Band:           Valley Of Chrome



*The notes I place here aren’t exact. Improvise your timing…

Standard Tuning

/ - Slide
x – Dead Note


Intro:

E||----------------------------------------------------|
B||----------------------------------------------------|
G||--5--4--2----2--5--x--4/-5--x-----------------------|
D||--5--4--2----2--5--x--4/-5--x--3----------5---------|
A||--3--2--0----0--3--x--2/-3--x--3----------5---------|
E||-------------------------------1----------3---------|

----------------------------------------|
----------------------------------------|
-2----2--5--x--4/-5--x------------------|
-2----2--5--x--4/-5--x--3----------5----|      (3x)
-0----0--3--x--2/-3--x--3----------5----|
------------------------1----------3----|

----------------------------------------------------|
----------------------------------------------------|
--------2----2--5--x--4/-5--x-----------------------|
--------2----2--5--x--4/-5--x--3----------5---------|
--------0----0--3--x--2/-3--x--3----------5---------|
-------------------------------1----------3---------|

---------------------------------------------|
---------------------------------------------|
-2----2--5--x--4/-5--x------------------5--4-|
-2----2--5--x--4/-5--x--3----------5----5--4-|
-0----0--3--x--2/-3--x--3----------5----3--2-|
------------------------1----------3---------|

Verse:

is this goodbye and farewell? it's a romantic tragedy
all is fair in love and war and I'm the lonely casualty

Guitar 1:
----------------------------------------------------|
----------------------------------------------------|
----------------------------------------------------|
--7--x--x--7--x--x--7--x--7--x--x--7--x--10--10--10-|
--7--x--x--7--x--x--7--x--7--x--x--7--x--10--10--10-|
--5--x--x--5--x--x--5--x--5--x--x--5--x--8---8---8--|

------------------------------------------------|
------------------------------------------------|
------------------------------------------------|
-5--x--x--5--x--x--5--x--5--x--x--5--x--2--2--2-|
-5--x--x--5--x--x--5--x--5--x--x--5--x--2--2--2-|
-3--x--x--3--x--x--3--x--3--x--x--3--x--0--0--0-|

your forked tongue has lost it's sharpness
it does'nt have the luster it used to before

Guitar 2: (I’m not sure about this, nilagay ko lang para merong ginagawa yung isa…)

----------------------------------------------------|
----------------------------------------------------|
--5--------5--------5-----5--------5-----9---9---9--|
--7--x--x--7--x--x--7--x--7--x--x--7--x--10--10--10-|
--7--x--x--7--x--x--7--x--7--x--x--7--x--10--10--10-|
-----x--x-----x--x-----x-----x--x-----x-------------|

------------------------------------------------|
------------------------------------------------|
-4--------4--------4-----4--------4-----1--1--1-|
-5--x--x--5--x--x--5--x--5--x--x--5--x--2--2--2-|
-5--x--x--5--x--x--5--x--5--x--x--5--x--2--2--2-|
----x--x-----x--x-----x-----x--x-----x----------|

sure it takes a lot of soul to forgive
so let me show you your way out of that door

Guitar 2: (muted)

----------------------------------------------------|
----------------------------------------------------|
--5--------5--------5-----5--------5-----9---9---9--|
-----7--------7--------------7--------7--10--10--10-|
--------7--------7-----7--------7--------10--10--10-|
----------------------------------------------------|

------------------------------------------------|
------------------------------------------------|
-4--------4--------4-----4--------4-----1--1--1-|
----5--------5--------------5--------5--2--2--2-|
-------5--------5-----5--------5--------2--2--2-|
------------------------------------------------|
Bridge:

you are a beautiful walking mistake and from you I have learned


Guitar 1:

------------------------------------------------|
------------------------------------------------|
------------------------------------------------|  (2x)
--3--------5-------7---------------------7p5h7--|
--3--------5-------7----------------------------|
--1--------3-------5-------5-5-5--5-5-5---------|

Guitar 2:


------------------------------------------------|
------------------------------------------------|
-----------------------------------------5p4h5--|  (2x)
--------3-------5--x--7-------------------------|
-----3----------5--x--7-------------------------|
--1--------3----3--x--5----5-5-5--5-5-5---------|

how could someone so true be so fake? Now you're none of my concern

Guitar 1:

----------------------------------------------------------------------------|
----------------------------------------------------------------------------|
--------------------------------------------------------------------5--4--2-|
--3--------5-------10---------------------10p9h10----3--------5-----5--4--2-|
--3--------5-------10--------------------------------3--------5-----3--2--0-|
--1--------3-------8--------8-8-8--8-8-8-------------1--------3--x----------|

Guitar 2:

----------------------------------------------------------------------------|
----------------------------------------------------------------------------|
-------------------------------------------9h7p9--------------------5--4--2-|
--------3-------5--x--10-----------------------------------3--------5--4--2-|
-----3----------5--x--10--------------------------------3-----------3--2--0-|
--1--------3----3--x--8-----8-8-8--8-8-8-------------1--------3--x----------|

Chorus:

let go - you are nothing I deserve
o-oh - your acting's all but superb
let go - a romance for the deaf and blind
o-oh - with such poor taste and design

---------------------------------------------|
---------------------------------------------|
-2----2--5--x--4/-5--x-----------------------|
-2----2--5--x--4/-5--x--3----------5-----—---|   (3x)
-0----0--3--x--2/-3--x--3----------5-----—---|
------------------------1----------3-----—---|

---------------------------------------------|
---------------------------------------------|
-2----2--5--x--4/-5--x------------------5--4-|
-2----2--5--x--4/-5--x--3----------5----5--4-|
-0----0--3--x--2/-3--x--3----------5----3--2-|
------------------------1----------3---------|


these calloused hands are shaking and I'm breathing heavily
soon all of this will be over shadows reaching out to me

sweet nothings in my ears now they disgust
those letters you've sent now gather dust
sure it takes a lot of soul to forgive
I'm dead with you and now I want to live

you are a beautiful walking mistake and from you I have learned
how could someone so true be so fake? Now you're none of my concern

Postlude:

and now this is the time and I cannot pretend
the day I live again is when our story ends

Guitar 1:

-----------------------------------------|
-----------------------------------------|
-----------------------------------------|
-----------------------------------------|
-----------------------------------------|
--7----9h10p9--------7----9h10p9----5----|

Guitar 2:

-----------------------------------------|
-----------------------------------------|
-----------------------------------------|
-----------------------------------------|
--5----7h9p7---------5----7h9p7-----4----|
-----------------------------------------|

dramatic lies and severed ties in bloodstained cradles lay
despite the loss that bridge I'll cross come calm or storm what may
we drank the wine the undivine process of suicide
let it be known apart we've grown I gave you everything I own
and as you make your final exit I let our story slip away
I bury you with the memories of a forgotten yesterday

Guitar 1:
---------------------------------------------|
---------------------------------------------|
---------------------------------------------|
--9----11h12p11--------9----11h12p11----7----|
---------------------------------------------|
---------------------------------------------|

Guitar 2:

----------------------------------------------------------------------------|
----------------------------------------------------------------------------|
----------------------------------------------------------------------------|
----------------------------------------------------------------------------|
----------------------------------------------------------------------------|
--7---7--7--7---7--7--7---7--7--7---7--2---2--2--2---2--2--2---2--2--2---2--|

---------------------------------------------------------------------------|
---------------------------------------------------------------------------|
---------------------------------------------------------------------------|
---------------------------------------------------------------------------|
---------------------------------------------------------------------------|
---3---3--3--3---3--3--3---3--3--3---3--8---8--8--8---8---5---5--5--5---5--|

END

This tab isn’t 100% correct…
Di ko rin nilagay ang lead…
I always improvise when it comes to lead… you should too… ^__^

Credits:

Jepoi Camposano (The Used) for lyrics…
            
Submit corrections



        Art Of Letting Go lessons Hard to play? Try these video lessons and learn fast Art Of Letting Go lessons
        
↑ Back to top | Tablatures and chords for acoustic guitar and electric guitar, ukulele, drums are parodies/interpretations of the original songs. You may use it for private study, scholarship, research or language learning purposes only